Song name
# A B C D E F G H I J K L M N O P Q R S T U V W X Y Z

Kasabian - Lsf tab

ARTIST : KASABIAN
SONG : L.S.F.

INTRO/VERSES :
    E     A     G
e|------------------|
B|------------------|
G|------------------|
D|--6-----11----9---|  ( listen song for rythm )
A|--7-----12----10--|
E|------------------|

CHORUS : CHORDS : E , G , A , E .
              e|--0---3---0---0---|
              B|--0---0---2---0---|
              G|--1---0---2---1---|
              D|--2---0---2---2---|
              A|--2---x---0---2---|
              E|--0---3-------0---|
this song .
les rock .......
thanks .
Tap to rate this tab
# A B C D E F G H I J K L M N O P Q R S T U V W X Y Z