Song name
# A B C D E F G H I J K L M N O P Q R S T U V W X Y Z

Kasabian - Cutt Off tab

Help us improve GuitareTab! Take a short survey!
-------------------------------------------------------------------------------
			     Cutt Off - Kasabian
-------------------------------------------------------------------------------

Tuning: Standard

e|---------------------------------------------------------------------------|
B|---------------------------------------------------------------------------|
G|-----------------5---------------------------------------------------------|
D|-----5--3--5--3-----5--3--5--3-----5--3--5--3------------------------------|
A|--3-----------------------------3------------------------------------------|
E|---------------------------------------------------------------------------|

e|---------------------------------------------------------------------------|
B|---------------------------------------------------------------------------|
G|--5--8--7--10--------------------------------------------------------------|
D|--5--8--7--10--------------------------------------------------------------|
A|--3--6--5--8---------------------------------------------------------------|
E|---------------------------------------------------------------------------|

e|--8---11--10--13----8---11--10--3------------------------------------------|
B|--8---11--10--13----8---11--10--3------------------------------------------|
G|--9---12--11--14----9---12--11--4------------------------------------------|
D|--10--13--12--15----10--13--12--5------------------------------------------|
A|--10--13--12--15----10--13--12--5------------------------------------------|
E|--8---11--10--13----8---11--10--3------------------------------------------|

e|---------------------------------------------------------------------------|
B|---------------------------------------------------------------------------|
G|--5--8--7--10----10--8--7--8--7--------------------------------------------|
D|--5--8--7--10--------------------10---------8--10--8-----------------------|
A|--3--6--5--8-------------------------8--11------------11-------------------|
E|---------------------------------------------------------------------------|

e|-----------------------------------8--8--8---------------------------------|
B|-----------------------------------8--8--8---------------------------------|
G|---------------------------------------------------------------------------|
D|---------------------------------------------------------------------------|
A|--3--5--6--8--6--8--6------------------------------------------------------|
E|-----------------------3--6--7--8------------------------------------------|

e|---------------------------------------------------------------------------|
B|---------------------------------------------------------------------------|
G|--5--8--7--10--------------------------------------------------------------|
D|--5--8--7--10--------------------------------------------------------------|
A|--3--6--5--8---------------------------------------------------------------|
E|---------------------------------------------------------------------------|

e|---------------------------------------------------------------------------|
B|---------------------------------------------------------------------------|
G|------8--8--8--7--7--12--12--10------8--8--8--7--7-------------------------|
D|--10-----------------------------10-----------------8--8-------------------|
A|----------------------------------------------------------10---------------|
E|---------------------------------------------------------------------------|


| /  slide up
| \  slide down
| h  hammer-on
| p  pull-off
| ~  vibrato
| +  harmonic
| x  Mute note
===============================================================================
Related for Cutt Off tab