Song name
# A B C D E F G H I J K L M N O P Q R S T U V W X Y Z

Kasabian - Butcher Blues tab

Kasabian
Butcher Blues
Tabbed by RT
Standard

This is the main riff that plays throughout the song
e ------------------------------------|
B ------------------------------------|
G --------3-5-5-3---------------------|
D -----3h5--------5-3-1---------------|
A --3-3-------------------------------|
E ------------------------------------|

At the i just can't stoop losin control, i said that i just cant stop losin control bit

e -------------------------------------------------------------|
B -----------------------------------11------------------------|
G --------------8-10-8/12---12-12-12----12-10-8-10-12-8/5------|
D --10-10-10-10------------------------------------------------|
A -------------------------------------------------------------|
E -------------------------------------------------------------|

solo

e -8-11-10-11-10-8----8---------8---8---8----8----8------------|
B ----------------------8/11-11--------------------------------|
G -------------------------------------------------------------|
D -------------------------------------------------------------|
A -------------------------------------------------------------|
E -------------------------------------------------------------|


e -6---5-------------------------------------------------------|
B -----------8----5-6-5----------------------------------------|
G -----------------------5-------------------------------------|
D -------------------------------------------------------------|
A -------------------------------------------------------------|
E -------------------------------------------------------------|


Tap to rate this tab
# A B C D E F G H I J K L M N O P Q R S T U V W X Y Z