Song name
# A B C D E F G H I J K L M N O P Q R S T U V W X Y Z

Kasabian - Fast Fuse tab

Help us improve GuitareTab! Take a short survey!
New Song by kasabian.

this is the whole song.. and played as easiest to play as well as how it sounds like Serge plays it. lol

Standard Tuning

Intro: 
(it can be played a different way but this sounds more effective)
           x2
|-----------|---------------------|
|-----------|---------------------|
|-----------|---------------------|
|-----------|---------------------|
|-----------|-2/14-13-9-----------|
|-2/14-13-9-|-----------5-7-444-5-|   repeat all twice

Main Riff:
|-------------------|
|-------------------|
|-------------------|
|-------------------|
|-----0-2-0---0-----|
|-2-2-------2---2-2-| x2

|-------------------|
|-------------------|
|-------------------|
|-----0-2-0---0-----|
|-2-2-------2---2-2-|
|-------------------|

Bridge Bit:
|---------------------------------|
|---------------------------------|
|---------------------------------|
|---------------------------------|
|-------------0-2-0---0-----------|
|-2-2-2-2-2-2-------2---2-2-2-2-2-|

Tarantino bit/outro:
             x4
|-------------|-----------------------------------------------|
|-------------|-----------------------------------------------|
|-------------|-2h4-4-4-4-2h4-4-4-4-2h4-4-4-4-4^6-^6-^6r4-2---|
|--2h4-4-4-4--|---------------------------------------------4-|
|-------------|-----------------------------------------------|
|-------------|-----------------------------------------------|

cant wait for this EP. enjoy! 

Ethan
Related for Fast Fuse tab