Song name
# A B C D E F G H I J K L M N O P Q R S T U V W X Y Z

Kasabian - Apnoea tab

 
Track is mostly percussion but here are the guitar parts

Verse:

e|-------------------------------|
B|-------------------------------|
G|-------------------------------|
D|-------------------------------|
A|--9-9--------7--9-9-------7----|
E|-------9--9----------9-9-------|


Chorus:

e|--14---12-----------------------------|
B|------------14----12-----(14)---------|
G|---------------------------------11---|
D|--------------------------------------|
A|--------------------------------------|
E|--------------------------------------|



Tap to rate this tab
 
# A B C D E F G H I J K L M N O P Q R S T U V W X Y Z