Song name
# A B C D E F G H I J K L M N O P Q R S T U V W X Y Z

Kashmir - Shes Made Of Chalk tab

While making this tab I got some inspiration from the guys at Kashmir-lounge.dk, so 
to them!
It always helps to check out live performances of Kashmir if you want to learn their 
so check
them out here:
http://www.youtube.com/watch?v=0r2JQ60hezA&feature=related

You are welcome to write if necessary; jerami5@hotmail.com

Hope you enjoy!
Jerami Nielsen, Denmark!
29 april 2010
-------------------------------------------------------------------------------
			                        SHE'S MADE OF CHALK - KASHMIR
-------------------------------------------------------------------------------

Kasper seems to play some free impro in the intro and following verses with the
E dorian scale:
e|---------------------------------------------------------12--14--15--|
B|---------------------------------------------12--14--15--------------|
G|---------------------------------11--12--14--------------------------|
D|---------------------11--12--14--------------------------------------|
A|-------------12--14--------------------------------------------------|
E|--12--14--15---------------------------------------------------------|

Intro chord:
  E sus4
e|-------|
B|--5~---|
G|--4~---|
D|--7~---|
A|--7~---|
E|--0~---|

The low E in the verse that keeps pumping is just to get the idea of how it is played 
the verse.
A good thing is to keep you fingers on the E sus4 chord in the verse and keep playing it 
a arpeggio style
and try to add the tones I have transcribed.
Use these tones very freely and just try to add some discreet and subtle tones (in the 
of E Dorian):
e|-----------------------------------------------------------------------------------|
B|--------------------------------------------------------------7--------------------|
G|---------------6~-------------------7~---------------9~--------------9~-----7----9-|
D|-------------------------------5-------------5/7-----------------------------------|
A|-----------------------------------------------------------------------------------|
E|-(0)-(0)-(0)-(0)----(0)-(0)-(0)--(0)---(0)-------(0)--(0)--(0)---(0)----(0)---(0)--|

Verse riff:
e|----------------------------|
B|----------------------------|
G|----------------------------|
D|-----2------0-------0-------|
A|--0----0--------------------|
E|---------3----3/7-7---0~----|

Chorus:
e|----------------------|
B|----------------------|
G|----------------------|
D|-------0-------0----0-|
A|----------------------|
E|-10-10---10-10---10---|(2x)
  Uhh, lets go out...

e|-------------------|
B|-------------------|
G|-------------------|
D|-----0-----0----0--|
A|-------------------|
E|-9-9---9-9---9-----|(2x)
...tonight...

e|-------------------|
B|-------------------|
G|-------------------|
D|-----0-----0----0--|
A|-------------------|
E|-8-8---8-8---8-----|(2x)
...You don't need to be...

e|----------------------------------|------------------|
B|----------------------------------|------------------|
G|-------0-----------0----------0---|------------------|
D|-7-7---------7b--------7----------|-----0-----0---0--|
A|----------------------------------|------------------|
E|-----5---(5)5----5---5-----(5)----|-7-7---7-7---7----|
...frighten...			                       Don't say...  	    (2x)

  C sus2                            D (5)           A(5)(sus4)
e|------------------------------------------------------------------|
B|--------------------------------------3-----3---3--------3--------|
G|-------------------0------------------2-----2---2--------2--------|
D|-----0-----2---4-------4---2---0--0-0---0-0---0-------2----2---2--|
A|-3-3---3-3---3---3---3---3---3--------------------0-0---0----0----|
E|------------------------------------------------------------------|-
...right...                         Move on,    jump in, fall out...

 C sus2 (Variation of the C sus2 chord in the last chours)
e|------------------------------|
B|---------------------------0--|
G|-------------------0---2------|
D|-----0-----2---4--------------|
A|-3-3---3-3---3---3---3---3----|
E|------------------------------|-

Main riff:
Use your middle finger and little finger for the powerchords
(instead of index and ring/little finger). Then you are using your index finger to 
to the A/G powerchord.
This is just a variation of how Kasper plays it, you can also just jump between the 
A and G as he also does sometimes.
e|------------------------------|
B|------------------------------|
G|------------------------------|
D|------------------------------|
A|-5--5-5-5/7-7--7-7-7-2--2-2-2-|
E|-3--3-3-3/5-5--5-3-5-0--0-0-0-|(3x)
	                  A/G
e|----------------------------|-0~--|
B|----------------------------|-5~--|
G|----------------------------|-4~--|
D|----------------------------|-7~--|
A|-5--5-5-5/7-7--7-5-7-7--5-2-|-7~--|
E|-3--3-3-3/5-5--5-3-5-5--3-0-|-0~--|

Lead guitar solo riff:
e|---------------------------------------------------------|
B|-14b15br-12-14b17br-12-14b15br-12-14b17br-12-14b15br-12--|
G|---------------------------------------------------------|
D|---------------------------------------------------------|
A|---------------------------------------------------------|
E|---------------------------------------------------------| (4x)

Breakdown:
e|-----------------------------------------------------------------------------------|
B|--5~----------3~------------3~-------1~-------4~-----------------------------------|
G|---------------------------------------------------------------3~--------------3~--|
D|-----------------------------------------------------------------------------------|
A|-----------------------------------------------------------------------------------|
E|-----------------------------------------------------------------------------------|

e|-------------------------------------------------------|
B|-------------------------------------------------------|
G|---------2~--------------------------------4~----------|
D|-------------------------------------------------------|
A|-------------------------------------------------------|
E|-------------------------------------------------------|

----------------------------------------------------------------------------------------------

| /   slide up
| ~   vibrato
| b   Bend
| br  Bend release
Tap to rate this tab
 
# A B C D E F G H I J K L M N O P Q R S T U V W X Y Z