Song name
# A B C D E F G H I J K L M N O P Q R S T U V W X Y Z

Kashmir - Big Fresh tab

HEj .. det her har jeg faktis hugget fra en inde på kashmir lounge..
(undskylder meget) men jeg synes det ville være en synd hvis
denne version ikke kom herind.
så jeg undskylder og kondolerer men her er Big fresh
skriv hvis i vil have noget andet kashmir tab..
peter ellekaer@hotmail.com

e------------------- -g-|
h------------------- -e-|
g------------------- -n-|
d--5-5-5-4-4-2-2-2-- -t-|
a------------------- -a-|
e------------------- -g-|

  i pick you up.....

e----------------------------   e---------------|
h----------------------------   h---------------|
g--10--9---10--12---14------   g----------------|
d----------------------------   d----5--2-------|
a--8---7---8---10---12-------  a----3--0--------|
e----------------------------   e---------------|
   now the time has come....


e---------------------------------------------|
h---------------------------------------------|
g--12--11-12--14--16--11-9--11-12--14--16-----|
d---------------------------------------------|
a--10--9--10--12--14--9--7--9--10--12--14-----|
e---------------------------------------------|

   the map will snore...

e---------------------------|
h---------------------------|
g--12--11-9--6--7--6--9-----|
d---------------------------|
a--10--9--7--7--8--7--10----|
e---------------------------|

   and we don't stop until....
                                                  omkv          bro
e-----------------------          e---------    e----------|
h-----------------------          h---------    h----------|
g--14--12--14--16--17---        g---------    g------------|
d-----------------------          d--5--2---    d--5--2----|
a--12--10--12--14--15---        a--3--0---    a--3--0------|
e-----------------------          e---------    e----------|
  now the time has come....        big fresh....


                                      omkv.
e------------------     e--------- -g--|
h------------------     h--------- -e--|
g--12--14--16--18-     g--------- -n---|
d------------------     d--5--2--- -t--|
a--10--12--14--16-     a--3--0--- -a---|
e------------------     e--------- -g--|

  like porcelain...       big fresh..


Solo:

e----------------------------------------------------------- -----------|
h--7-7-7-7-----------------------------7-7-7-7-7---7---7-7-7 -7/10-7----|
g----------4---------0-4-----0-4-10-4----------------9------ --------9--|
d------------4-4-4\2-----2-4---------------------9---------- -----------|
a----------------------------------------------------------- -----------|
e----------------------------------------------------------- -----------|

e---------------------------13-------12-15vvvv-17-19--20---|
h---------------15-13----13----12-13-----------17-19-------|
g--9-7-6-2-4----------14-----------------------------------|
d------------3---------------------------------------------|
a----------------------------------------------------------|
e----------------------------------------------------------|
Tap to rate this tab
# A B C D E F G H I J K L M N O P Q R S T U V W X Y Z