Song name
# A B C D E F G H I J K L M N O P Q R S T U V W X Y Z

Kashmir - Eter tab

-------------------------------------------------------------------------------
			     ETHER - Kashmir
-------------------------------------------------------------------------------
Tabbed by: Joakim Langkilde
Email:jlangkilde@gmail.com

Tuning:Standard EADGBe

e|---------------------------------------------------------------------------|
B|---------------------------------------------------------------------------|
G|-----2-------------------------3---------------5--------------------------5|
D|---------------5---------------------5----------------5--------------------|
A|---------------------------------------------------------------------------|
E|---------------------------------------------------------------------------|

e|---------------------------------------------------------------------------|
B|---------------------------------------------------------------------------|
G|-----7-------10---7----------5----3----2-----------------------------------|
D|-----------------------------------------------------3------0-----5--------|
A|---------------------------------------------------------------------------|
E|---------------------------------------------------------------------------|

e|---------------------------------------------------------------------------|
B|---------------------------------------------------------------------------|
G|---5---5---5---5---5---5---5---5---5---5----7s5---3-3s5--------------------|
D|---------------------------------------------------------------------------|
A|---------------------------------------------------------------------------|
E|---------------------------------------------------------------------------|
Tap to rate this tab
# A B C D E F G H I J K L M N O P Q R S T U V W X Y Z