Kashmir - Rocket Brothers chords

Highlighted       Show chord diagrams
Kashmir - Rocket Brothers (http://www.youtube.com/watch?v=rkQsoyKoiWg)

I've listened all by the ear ;)
       ////Enjoy\\\\

CAPO 2 FRET


Intro x3 (0:06)                                              (0:29)
E--0-0-0-0-0-0-0-0-0-0-0-0-0-0-0-0-0-0-0-0--0--0---|--0--0--0--0--0--0--0--0|
B-0-0-1-1-3-3-5-5-7-7-1-1-3-3-5-5-7-7-8-8-10-10----|12-12-12-12-12-12-12-12-|
G--------------------------------------------------|------------------------|
D--------------------------------------------------|------------------------|
A--------------------------------------------------|------------------------|
E--------------------------------------------------|------------------------|


VERS.1

                   Em
I miss you so much boy
                  E      Em
Will we be coming on again
                    Am    C
Don't ever lose your ropes
                             G  D
This man is hanging by the ends

                   Bm  G
I owe you so much time
                               C    Am
Yes you may say it isn't like that at all
               F
But now it's coming back to you
              D7
These open moments that I blew



CHORUS

                           Bm   C
Rocket brothers crack and burst
                              G   Am
If they can't meet upon the verge
                           Bm   C
Of breaking into separate parts
                              G  D  Dm (Let it ring)
That was not written in our cards

(Little Break)
                             C    G
Now you've got someone to protect
                     C    G
Someone you cannot reject


VERS.2

                   Em
I miss you so much boy
                         E   Em
But I was buried in the mines
                      Am   C
I've found it hard to stop
                             G    D
You've found me very hard to find
                         Bm  G
But now that you've made way
                                C     Am  
I'd better tie together these ropes again
                F
And throw the times right back to you
               D
And all the chances that I blew


CHORUS

                           Bm   C
Rocket brothers crack and burst
                            G    Am
If they can't meet upon the verge
                           Bm    C
Of breaking into separate parts
                             Em   D    
That was not written in our cards
                              Bm   C
Those rocket brothers on the verge
                                     G    Am
We should be careful cause it could burst
                       Bm   C
And were not lonely anymore
                    G  D  Dm (Let it ring)
Lonely as we were before

(Little Break)
                             C    G
And now there's someone to protect
                     C    G
Someone you cannot reject
                       C    G
Something I will not neglect


And then Intro 2x Again.
                    (3:38)                                   (3:53)
E--0-0-0-0-0-0-0-0-0-0-0-0-0-0-0-0-0-0-0-0--0--0---|--0--0--0--0--0--0--0--0|
B-0-0-1-1-3-3-5-5-7-7-1-1-3-3-5-5-7-7-8-8-10-10----|12-12-12-12-12-12-12-12-|
G--------------------------------------------------|------------------------|
D--------------------------------------------------|------------------------|
A--------------------------------------------------|------------------------|
E--------------------------------------------------|------------------------|
Tap to rate this tab
 
# A B C D E F G H I J K L M N O P Q R S T U V W X Y Z