Song name
# A B C D E F G H I J K L M N O P Q R S T U V W X Y Z

Kashmir - Rocket Brothers tab

ROCKET BROTHERS                                                           by KASHMIR

capo 1

INTRO
e||--0---0---0---0---0---0---0---0---0---0---0---0---0---0---0---0---0---0---0---0--|
B||0---0---1---1---3---3---5---5---7---7---1---1---3---3---5---5---7---7---8---8----|
G||---------------------------------------------------------------------------------|
D||---------------------------------------------------------------------------------|
A||---------------------------------------------------------------------------------|
E||---------------------------------------------------------------------------------|

         3X         4X/OUT2X
e||--0---0|--0---0---0---0-|
B||10--10-|12--12--12--12--|
G||-------|----------------|
D||-------|----------------|
A||-------|----------------|
E||-------|----------------|

CHORDS FOR VERSE
e||---0----2----0----0----0----0---------2----2----2----3----0----0----0--|
B||---0----3----0----0----1----0----3----3----1----3----0----1----0----1--|
G||---0----0----1----0----2----0----0----2----2----4----0----0----0----2--|
D||---2----0----2----2----2----2----0----0----0----4----0----2----2----2--|
A||---1----2----2----2----0----1----2----0----0---------2----3----1----0--|
E||-------------0----0--------------3-------------------3-----------------|
   Cmaj7 Gmaj7  E    Em   Am  Cmaj7 G    D    D7   Bm   G    C  Cmaj7  Am

e||---1----0----2---|
B||---1----1----1---|
G||---2----2----2---|
D||---3----3----0---|
A||---3----0----0---|
E||-----------------|
      F  Fmaj7  D7

CHORDS FOR CHORUS  in CHORUS 2
e||---2---3---3---0---0---0---2---3---3---2---1---0---3---0---3---|
B||---3---3---0---1---0---1---3---3---0---3---1---0---0---0---0---|
G||---4---5---0---2---2---2---4---5---0---2---2---0---0---0---0---|
D||---4---5---0---2---2---2---4---5---0---0---3---2---0---2---0---|
A||-------3---2---0---0---0-------3---2---0---0---1---2---1---2---|
E||-------3---3-----------------------3---------------3-------3---|
     Bm Csus2 G  Am Asus2 Am Bm Csus2 G   D   F Cmaj7 G Cmaj7 G

OUTRO 2X AS IN INTRO +                                                    2X
e||------------------------------------------------------------------------|---------|
B||--12--12--13--13--15--15--15--15--12--12--13--13--15--15--17--17--17--17|--19--19-|
G||0---0---0---0---0---0---0---0---0---0---0---0---0---0---0---0---0---0---|0---0----|
D||------------------------------------------------------------------------|---------|
A||------------------------------------------------------------------------|---------|
E||------------------------------------------------------------------------|---------|

e||--------------------------------15-------15----15-------15-------15----15---15-|
B||--19--19--19--19--19--19--15-15----15-15----15----15-15----15-15----15-----15--|
G||0---0---0---0---0---0-----------------------------------------------------0----|
D||-------------------------------------------------------------------------------|
A||-------------------------------------------------------------------------------|
E||-------------------------------------------------------------------------------|
Tap to rate this tab
# A B C D E F G H I J K L M N O P Q R S T U V W X Y Z