Song name
# A B C D E F G H I J K L M N O P Q R S T U V W X Y Z

Kashmir - Child Of A Distant Cult tab

Guitar and bass plays the same riff, soooo.... First tab
Enjoy

intro


G   /-----------/----------------/---------------------/---------------------------/
D   /-----------/----------------/---------------------/---------------------------/
A   /---77------/--5-6-7--------/---7s9---------------/---7--6---5-----------------/
E   /-----------/----------------/---------------------/---------------------------/

G    /--------------/------------------/-------------------------/
D    /--------------/------------------/-------------------------/
A    /--5-6--7------/---777---777-----/---777--------------------/
E    /--------------/------------------/-------------------------/



G    /----------------/-------------------------/------------------------/
D    /----------------/-------------------------/------------------------/
A    /----------------/--7--5--7---5---7-------/------------3------------/
E    /----------------/---7--------------------/---5---3--5---3--0-------/

Vers

G    /----------/------------/----------/---------/-----------/--------------/
D    /----------/------------/----------/---------/-----------/--------------/
A    /---77-----/---55------/----44----/---33----/----22-----/---------------/
E    /----------/------------/---------/----------/---33------/---0----------/
Tap to rate this tab
# A B C D E F G H I J K L M N O P Q R S T U V W X Y Z