Song name
# A B C D E F G H I J K L M N O P Q R S T U V W X Y Z

Kashmir - Electrified Love chords

Highlighted       Show chord diagrams
-----------------------------------------------------------------------------
                         Kashmir - Electrified love
-----------------------------------------------------------------------------

Tuning: EADGBe

    G A7sus G/H Cadd9 Em Esus F Dsus D Dm Bb Eb Cm Cm7 D7/F#
e|--3---3-----3---3----0--0---1---3--2--1--1--6--3--3----2--|
B|--3---3-----3---3----0--0---1---3--3--3--3--8--4--4----1--|
G|--0---0-----0---0----0--2---2---2--2--2--3--8--5--3----2--|
D|--0---2-----0---x----2--2---3---0--0--0--3--8--5--5----0--|
A|--x---0-----2---3----2--2---3------------1--6--3--3----0--|
E|--3------------------0--0---1--------------------------2--|


Example with G how to vary chords in verses

e|--3--3--3--3--|
B|--3--0--0--1--|
G|--0--0--0--0--|
D|--0--0--0--0--|
A|--x--x--x--x--|
E|--3--3--3--3--|


Intro

G       A7sus  G      A7sus


Verse 1

G       A7sus  G/H   Cadd9   Em (Esus Em)
G       A7sus  G/H   Cadd9   F


Chorus

Em      Dsus   D
Bb      Eb
Cm      F

G       A7     G      A7


Verse 2


Chorus


Part C

Bb      A7sus Am7     Eb     Cm7
D       Gm     D7/F#
Bb      A7sus Am7     Eb     Cm7
Dm      D  Dsus


Solo/outro

G A7 G A7
Tap to rate this tab
# A B C D E F G H I J K L M N O P Q R S T U V W X Y Z