Song name
# A B C D E F G H I J K L M N O P Q R S T U V W X Y Z

Kashmir - The Story Of Jamie Fame Flame tab

    _____________________________________
   / Kashmir                            /
  / The Story of Jamie Fame Flame Solo /
 / Travelogue                         /
/____________________________________/

Jeg har eddermame surfet rundt for at finde denne her solo mange gange, men den findes ikke
og der er virkelig en skam for det er sdan en fed solo, s derfor besluttede jeg mig 
at
tabbe den selv. Jeg kender en del, der i 12 r har nsket at kunne spille den og i de samme
12 r har haft en dyb depression for den ikke var til at finde! ...hber I kan bruge den!


For at f denne her jazz'ede lyd handler det altid om at have s lidt diskant som mulidt.
Det hjlper ogs gevaldigt p de, at brude den forreste pick-up.

---------------------------------------------------------16-15--x---------<12>---12-12--|
-------------------12------------------------------------16-15-14---14-13-<12>---12-12--|
-------------12-15----12----------------------------------x-14-13---14-13--12----11-11--|
-------12-14----------------14-13-12-11-------------14--------------13-12--11-----------|
-12s14-------------------14-------------14-13-12p11-------------------------------------|
----------------------------------------------------------------------------------------|
                                                         lad pegefingeren tage den nederste
                                                         tone og lg langefingeren barr

              de to 11'ere er 11.5'ere! bare bend en bitte smule
----------------------|-|----------------------------------------|
----------------------V-V----------------------------------------|
-------------------9-11-11-9----9---11-11b12.5-11-9--11b12.5-----|
--------------9-11-----------11----------------------------------|
-----7-9-9s11-----------------*----------------------------------|
-7h9-------------------------------------------------------------|
                              *palm mute den ene tone her

----------------------------------------------------------------|
------------------15--------------------------------------------|
-----12-14-14b16-(16)-14b16-14b16r14p12----14----12h13----------|
-/14------------------------------------14----14-------14---12--|
----------------------------------------------------------------|
----------------------------------------------------------------|
           hold bend'et mens du slr 15'eren an


------------------------------------|
------------------------------------|
------------------------------------| og tonz!
------------------------------------|
-5-5-5-5-5-5-5-5--5-5-5-5-5/14\5-5--|
-3-3-3-3-3-3-3-3--3-3-3-3-3/12\3-3--|
                                                    De sidste toner her gr sindssygt strkt,
                                                    og er mere eller mindre improviserede.
                                                    Bare g amok p en blues'et mde!
---------------------------------------------------------------------------------------------|
---------------------------------------------------------------------------------------------|
-16b18-16b18-16-15-14s15s14---x-14p12p11------------6-7p6p0-6p4-6p4-6-4----------------------|
------------------------------x----------14p12b14-0-----------------------7-7-------7-----x\-|
--------------------------------------------------*---------------------7-----4h5h7---4---x\-|
--------------------------------------------------------------------------------------5---x\-|
                                                  *nr du har bend'et 12'eren, s pull off
                                                   til 0 (ben streng) - det giver ogs din
                                                   venstre hnd tid til at n helt derned!


-------------------------------------    ---------------------------------------|
-------------------------------------    ---------------------------------------|
------------------------------------- x2 ---------------------------------------| x2
-------------------------------------    -9---7---7------------9----------------|
-2---5---5---7---9---10--x-x-7---9---    -7---5---5---9---7----7--10p9p7-7---9--|
-0---2---3---5---7----8--x-x-5---7---    -------------7---5--------------5---7--|
Eistrup vibrerer sindssygt meget nr han
spiller de her frste power akkorder!


-------------------------------------------------------------|
-12----------------------------------------------------------|
-14b16-12h14--12h14--12h14p12s11~--12--14pb16r14p12-14s16----|
-------------------------------------------------------------|
-------------------------------------------------------------|
-------------------------------------------------------------|

--------------------------------------------|
--------------------------------------------|
-/9-----------------------------------------|
-------/9--7--7--5h7p5s4--5--9-7-5--7-7h9---|
--------------------------------------------|
--------------------------------------------|


------------------------------------------------|
------------------------------------------------|
------------------------------------------------|
-----------------7---9--------------------7---9-|
-2---5---5---9---5---7----2---5---5---9---5---7-|
-0---2---3---7------------0---2---3---7---------| sdan!


- 7th /July /06
Just mail me at Maitinin@gmail.com with questions, comments and corrections!
Tap to rate this tab
# A B C D E F G H I J K L M N O P Q R S T U V W X Y Z