Song name
# A B C D E F G H I J K L M N O P Q R S T U V W X Y Z

Kashmir - Ruby Over Diamonds tab

hej det her er ruby over diamond soloen  som du nok har lęst dig til... til guitar.. det 
et lille stykke tid at lave den .. men den er fed .. hilsen Peter E.

E||---------------------|---------------|------------------- --|------------------|
B||---------------------|---------------|------------------- --|------------------|
G||---------------------|---------------|------------------- --|--9----7----------|
D||---------7-----10----|--7------------|---------7-----10-- --|------------------|
A||--8--10-----8--------|---------------|--8--10-----8------ --|------------------|
E---------------------|---------------|------------------- --|--------------------|

--------------------|-------------------|------------------- ---|
--------------------|-------------------|------------------- ---|
--9--7------7-------|-------------------|------------------- ---|
--------10-----7----|-----7-------10----|--8--7------------1 0--|
--------------------|--8-------8--------|--------8--10--8--- ---|
--------------------|-------------------|------------------- ---|

-----------------|------------------------|----------------- -----|
-----------------|------------------13----|----------------- -----|
-----------------|----------10------------|----------12~---1 0----|
--8--7-----------|--10--12------12--------|--10--12--10~---- -----|
--------8--------|------------------------|----------------- -----|
-----------------|------------------------|----------------- -----|

------------------------|------------------|---------------- --------|
------------------13----|--15----13--------|--17--15--13--15 --10----|
----------10------------|--14----12--------|--16--14--12--14 --9-----|
--10--12------12--------|------------------|---------------- --------|
------------------------|------------------|---------------- --------|
------------------------|------------------|---------------- --------|

--------------------------|------------------|------||
----------13--11--10------|------------------|------||
--10--12--------------12--|--10----9----7----|------||
--------------------------|------------------|------||
--------------------------|------------------|------||
--------------------------|------------------|------||
Tap to rate this tab
 
# A B C D E F G H I J K L M N O P Q R S T U V W X Y Z