Guitaretab - guitar tabs
Song name
# A B C D E F G H I J K L M N O P Q R S T U V W X Y Z

Kashmir - Kiss Me Goodbye tab

    ___________________
   / Kashmir          /  I think this song is about this person, who forgets to
  / Kiss Me Goodbye  /  hold on to what he has. I could for instance be the guy
 / The Good Life    /  who becomes famous and forgets about his now past
/__________________/  friends. This guy could be Kasper Eistrup, who knows...


Tuning: Standard, E A D G B E
Gtr I (left/middle) - Electric, Overdriven
Gtr II (middle) - Electric, Distorted
Gtr III (right/middle) - Electric, Distorted



 Intro
 Q=80 bpm
 6/8                     4/4               6/8
 Gtrs I, II, III
  Em
  H.          +H.         +H    +Q  T T S   +E    E   E   Q.
|-0---------|-(0)-------|-(0)---(0)-*-*-*-|-(*)---*---*---*-------|
|-0---------|-(0)-------|-(0)---(0)-*-*-*-|-(*)---*---*---*-------|
|-0---------|-(0)-------|-(0)---(0)-*-*-*-|-(*)---*---*---*-------|
|-2---------|-(2)-------|-(2)---(2)-*-*-*-|-(*)---*---*---*-------|
|-2---------|-(2)-------|-(2)---(2)-*-*-*-|-(*)---*---*---*-------|
|-0---------|-(0)-------|-(0)---(0)-*-*-*-|-(*)---*---*---*-------|

 Let the guitars feed and squeal through the amplifiers. The *'s
 indicate hitting the parts of the strings between necks and the
 string threads to produce noise. Let the Em ring simultaneously.



 6/8
 Gtrs I, II, III
  Em                        G       Gsus2   D
  S S S S S S S S S S S S   S S S S S S S S S S S S
|-------------------------|-------------------------|
|-------------------------|-------------------------|
|-----4-----4-------4-----|-----4-----2-------2-----|
|---5-----5---5---5---5---|---5-----5---5---4---4---|
|-7-----7-------7-------7-|-5-----5-------5-------5-|
|-------------------------|-------------------------|
|-Verse Riff


  A6      A7add13           Cmaj7   C6      Cadd#11
  S S S S S S S S S S S S   S S S S S S S S S S S S
|-------------------------|-------------------------|
|-------------------------|-------------------------|
|-----2-----0-------0-----|-----4-----2-------0-----|
|---4-----4---4---4---4---|---2-----2---2---4---4---|
|-0-----0-------0-------0-|-3-----3-------3-------3-|
|-------------------------|-------------------------|


  Am6                       D7
  S S S S S S S S S S S S   S S S S S S S S S S S S
|-------------------------|-------------------------|
|-------------------------|-------------------------|
|-----5-----5-------5-----|-----5-----5-------5-----|
|---4-----4---4---4---4---|---4-----4---4---4---4---|
|-0-----0-------0-------0-|-5-----5-------5-------5-|
|-------------------------|-------------------------|


  Gsus4                     G
  S S S S S S S S S S S S   S S S S S S S S S S S S
|-------------------------|-------------------------|
|-------------------------|-------------------------|
|-----5-----5-------5-----|-----4-----4-------4-----|
|---5-----5---5---5---5---|---5-----5---5---5---5---|
|-5-----5-------5-------5-|-5-----5-------5-------5-|
|-------------------------|-------------------------|
                                     end Verse Riff-|




 1st Verse
Gtr I plays Verse Riff palm muted

 "I used to belong here
  Be safe from the world here
  Share wine and believe
  You'd share yours forever"




 2nd Verse
Gtr I plays Verse Riff palm muted
(release the palm mute in the last 2 measures)

 "Time passes to past tense
  I walked past the sealed ends
  Pretended I was king
  With my back turned on the faithful"




 Chorus
 Gtr I
  Em                        Bmadd11
  E   E   S E   E   E.      E   Q       +S  E   E.
|-----0-------------0-----|-----0-------(0)-----0-----|
|-----0---------0---0-----|-----3-------(3)-----3-----|
|-0---0-----0---0---0-----|-4---4-------(4)-----4-----|
|-2---2-----2---2---2-----|-4---4-------(4)-4---------|
|-2---2---2-2---2---------|-2---------------2---------|
|-0---0---0-0-------------|---------------------------|
"Kiss          me good  -   bye             Kiss me

[ Tab from: http://www.guitaretab.com/k/kashmir/70760.html ]
  Cmaj7                     G6
  E   E   S E   E   E.      E   Q       +E.     E.
|---------------0---0-----|---------------------0-----|
|-0---0-----0---0---0-----|-----0-------(0)-----0-----|
|-5---5-----5---5---5-----|-0---0-------(0)-----0-----|
|-5---5---5-5---5---5-----|-5---5-------(5)-----5-----|
|-3-------3-3---3---------|-5---5-------(5)-----------|
|-------------------------|-3---3-------(3)-----------|
 Out            of  your    eye            Shoo-ting


 Gtr I
  Cmaj7                       Bsus4
  E   E   E   +S  E   E.      E   Q       +S  E   E.
|---------------------0-----|---------------------0-----|
|-----------------0---0-----|-----------------0---0-----|
|-----------------5---5-----|-----4-------(4)-4---4-----|
|-----5-----------5---5-----|-----4-------(4)-4---4-----|
|-3---3---3---(3)-3---3-----|-2---2-------(2)-2---2-----|
|---------------------------|---------------------------|
|
|Gtr II
| +W                          Q.           S  S S S S S
|---------------------------|---------------------------|
|---------------------------|-----------------x---------|
|---------------------------|-----------------x---x-x-x-|
|---------------------------|-----------------x-x-x-x-x-|
|---------------------------|-----------------x-x-x-x-x-|
|---------------------------|-----------------x-x-x-x---|
 ___ star           Let the   clouds          pass  you


 Gtrs I, II, III
  D             Dsus4       D             Dsus4
  S S S S S S S E   E   S   S S S S S S S E   S E
|-2-2-2-2-2-2-2-3---3---3-|-2-2-2-2-2-2-2-3---3-3---|
|-3-3-3-3-3-3-3-3---3---3-|-3-3-3-3-3-3-3-3---3-3---|
|-2-2-2-2-2-2-2-2---2---2-|-2-2-2-2-2-2-2-2---2-2---|
|-0-0-0-0-0-0-0-0---0---0-|-0-0-0-0-0-0-0-0---0-0---|
|-------------------------|-------------------------|
|-------------------------|-------------------------|
  by"




 3rd Verse
similar to 1st Verse

 "These scents here are yours now
  Mine's blown out but somehow
  I wish they'd return
  Just can't find a way how"




 4th Verse
similar to 2nd Verse

 "Never becomes always
  If you miss all these warnings
  I sure missed them all
  Dragged you with me falling"




 Chorus
All Guitars play this time

 "Kiss me goodbye
  Kiss me out of your eye
  Shooting star
  Wet my lips one last time"




 Church bell-Solo
All Guitars play Chorus as back up




 Interlude
similar to Intro, Gtrs II, III strum the natural harmonics
at the 12th fret on the open G, B & E-string.




 Bridge
 Gtrs I, II, III
    E5    D5       B5     C5    A5    B5      F#5   G5
    E   S E.     S E.     E     E   S E.    S E   S E
||----------------------------|-------------------------|
||o---------------------------|-------------------------|
||----------------------------|-------------------------| *the x's indicate
||--9---x-7------x------------|-----x-------x-----x-----|  pick scraping
||o-7---x-5------x-9-----10---|-7---x-9-----x-4---x-5---|
||------x--------x-7------8---|-5---x-7-----x-2---x-3---|


  B5    C        F#5   G5    C5    D5      F#5   G5
  E   S E.     S E.    E     E   S E   E   E.    E
|--------------------------|--------------------------||
|--------------------------|-------------------------o||
|--------------------------|--------------------------||
|-4---x--------x-----------|-5---x-7---x--------------||
|-2---x-3~-----x-4-----5---|-3---x-5---x---4-----5---o||
|-----x--------x-2-----3---|-----x-----x---2-----3----||


  H                E   E
|--------------------------|
|----------------------d---|
|----------------------r---|
|----------------------u---|
|----------------------m---|
|--------------------------|




 Chorus x2
similar to previous

 "Kiss me goodbye
  Kiss me out of your eye
  Shooting star
  Wet my lips one last time

  Kiss me goodbye
  Kiss me out of your eye
  Shooting star
  Let the clouds pass you by"




 Outro
Gtrs I, II play the chord while Gtr III plays the 15's until fadeout.
Notice that it actually fades into the intro of "Vote 4 Dick Taid"

  Csus2
 -3----- -15-
 -3----- -15-
 -5----- ----
 -5----- ----
 -3----- ----
 ------- ----



- 28th /March /06
Just mail me at Maitinin@gmail.com with questions, comments and corrections!
Related for Kiss Me Goodbye tab
Advertisement will be closed in 10 seconds