Song name
# A B C D E F G H I J K L M N O P Q R S T U V W X Y Z

Kashmir - Jewel Drop tab

Artist: Kashmir
Title: Jewel Drop
Album: No Balance Palace

Transcribed by: seagull
Tuning: Standard


The number of strokes on each note/octave may differ.

Intro:

|----------------------------5--/8-10-------------------------------------------|
|--------------------5-5--------------10-10-10-8/10-10--6-5---------------------|
|---7-7-----5--5-5-5-----7-7----------------------------------------------------|
|-------7-7---------------------------------------------------------------------|
|-------------------------------------------------------------------------------|
|-------------------------------------------------------------------------------|


----------------------------5-5-5---8-8-6-5------------------------------------|
--------------------5-5---------------------5-5-5-/8-6-5-6---------------------|
---7-7-----5--5-5-5-----7-7----------------------------------------------------|
-------7-7-------------------------------------------------7-------------------|
-------------------------------------------------------------------------------|
-------------------------------------------------------------------------------|


Interlude:
-
|-------------------------------------------------------------------------------|
|-------------------------------------------------------------------------------|
|----------7-7-7-7-7--9-9-9-9-9--12-12-12-12-12--15-15-15-15-15-----------------|
|-------------------------------------------------------------------------------|
|----------5-5-5-5-5--7-7-7-7-7--10-10-10-10-10--13-13-13-13-13-----------------|
|-------------------------------------------------------------------------------|

..nervous...

-------------------------------------------------------------------------------|
-------------------------------------------------------------------------------|
-----------7-7-7-7-7--9-9-9-9-9--10-10-10-10-10--------------------------------|
---------------------------------------------------7---------------------------|
-----------5-5-5-5-5--7-7-7-7-7---8--8--8--8--8--------------------------------|
---------------------------------------------------5---------------------------|


Chorus:

Gtr.1
|------------------------------------------------------------------------------|
|------------------------------------------------------------------------------|
|----------7-7-7-7-7--9-9-9-9-9--12-12-12-12-12--------------------------------|
|------------------------------------------------------------------------------|
|----------5-5-5-5-5--7-7-7-7-7--10-10-10-10-10--------------------------------|
|------------------------------------------------------------------------------|
...loudly, yeah...

Gtr.2
|---------------------------------------------|--------------------------------|
|---------------------------------------------|--------------------------------|
|.----------7-----9-------------7--5---------.|---7--5--9----------------------|
|.-------------------10--8------------5/7----.|--------------------------------|
|-----------5-----7-------------5--3----------|---5--3--7----------------------|
|---------------------8--6------------3/5-----|--------------------------------|


Intro:

|----------------------------5--/8-10------------------------------------------|
|--------------------5-5--------------10-10-10-8/10-10--6-5--------------------|
|---7-7-----5--5-5-5-----7-7---------------------------------------------------|
|-------7-7--------------------------------------------------------------------|
|------------------------------------------------------------------------------|
|------------------------------------------------------------------------------|


-----------------------------5-5-5---8-8-6-5-----------------------------------|
---------------------5-5---------------------5-5-5-/8-6-5-6--------------------|
----7-7-----5--5-5-5-----7-7---------------------------------------------------|
--------7-7-------------------------------------------------7------------------|
-------------------------------------------------------------------------------|
-------------------------------------------------------------------------------|

Verse:
|------------------------------------------------------------------------------|
|-----------------5---------5----------6---------6-----------------------------|
|.------------7---------7----------7---------7--------------------------------.|
|.----------7---7-----7---7------7---7-----7---7------------------------------.|
|------------------------------------------------------------------------------|
|------------------------------------------------------------------------------|
...actor...

Chorus:

Gtr.1
|------------------------------------------------------------------------------|
|------------------------------------------------------------------------------|
|----------7-7-7-7-7--9-9-9-9-9--12-12-12-12-12--------------------------------|
|------------------------------------------------------------------------------|
|----------5-5-5-5-5--7-7-7-7-7--10-10-10-10-10--------------------------------|
|------------------------------------------------------------------------------|
...loudly, yeah...

Gtr.2
|---------------------------------------------|--------------------------------|
|---------------------------------------------|--------------------------------|
|.----------7-----9-------------7--5---------.|---7--5--9----------------------|
|.-------------------10--8------------5/7----.|--------------------------------|
|-----------5-----7-------------5--3----------|---5--3--7----------------------|
|---------------------8--6------------3/5-----|--------------------------------|


Allright, I skipped the octave part in the ending,
'cuz I can't write it down so that anyone except myself
will understand it. :)

Enjoy!


Comments or corrections, send to: seagull_soren@hotmail.com
Tap to rate this tab
 
# A B C D E F G H I J K L M N O P Q R S T U V W X Y Z