Song name
# A B C D E F G H I J K L M N O P Q R S T U V W X Y Z

Kashmir - Rose tab

INTRO / VERS

   Aadd9b5  Aadd9  Aadd9b5  Aadd9   H   H   Hsus7   H   H   Hsus7
e--7---7----7------7---7----7-------7---7---7-------7---7---7---- -g-|
h--4---4----5------4---4----5-------7---7---7-------7---7---7---- -e-|
g--6---6----6------6---6----6-------8---8---9-------8---8---9---- -n-|
d--7---7----7------7---7----7-------9---9---7-------9---9---7---- -t-|
a--0---0----0------0---0----0-------9---9---9-------9---9---9---- -a-|
e-----------------------------------7---7---7-------7---7---7---- -g-|
   Rose...

    Dm6   Dm7  Dm6   Dm7  Am  Asus2  Asus4  Am  Em7/g  D/f#  Fmaj7 -b5
e---7--7--8----7--7--8----0---0------0------0---0------2-----0------0-|
h---6--6--6----6--6--6----1---0------3------1---3------3-----1------0-|
g---7--7--7----7--7--7----2---2------2------2---0------2-----2------2-|
d---7--7--7----7--7--7----2---2------2------2---2------0-----3------3-|
a--(5)--------(5)---------0---0------0------0-------------------------|
e-----------------------------------------------3------2--------------|
   Don´t drink all of the water...

OMKVÆD

   A     A   -sus2     Fmaj7  A     A   -sus2     Fmaj7
e--0-----0----0-----0--0------0-----0----0-----0--0----- -0--0-- -g-|
h--2-----2----0-----0--1------2-----2----0-----0--1----- -3--1-- -e-|
g--2-----2----2--2--2--2------2-----2----2--2--2--2----- -2--2-- -n-|
d--2-----2----2-----3--3------2-----2----2-----3--3----- -3--3-- -t-|
a--0-----0----0---------------0-----0----0-------------- ------- -a-|
e------------------------------------------------------- ------- -g-|
   Rose, stay in my garden...

SOLO 1

e------------------------------------------------------------------- -|
h--5-5-5-4-4-4-2-2-2------------------------------------------------ -|
g--------------------2-1-------------------------------------------- -|
d------------------------4-2-1--------4-2-1-2-2-1-------1-2-1-4-2-1- -|
a------------------------------0-2-0--------------0-2-4------------- -|
e------------------------------------------------------------------- -|

e--------------------------------------------9^12-12-12-12-11------- -|
h----------10-10-9-9-12-12-10-10-12-10^14-12------------------12---- -|
g--9-9-8-8-------------------------------------------------------11- -|
d------------------------------------------------------------------- -|
a------------------------------------------------------------------- -|
e------------------------------------------------------------------- -|

e---------------------------------------------- -|
h---------------------------------------------- -|
g--9-8----------------------------------------- -|
d------9----9-11-11^12-11-9-11-9----9-11-9^11-9 -|
a--------11----------------------11------------ -|
e---------------------------------------------- -|

BRIDGE                            B-STK

   A   G   D            F   C     A   F   D   C   F   D
e--0---3---2- -g- -g- --1---0-  --0---1---2---0---1---2- -g-
h--2---3---3- -e- -e- --1---1-  --2---1---3---1---1---3- -e-
g--2---0---2- -n- -n- --2---0-  --2---2---2---0---2---2- -n-
d--2---0---0- -t- -t- --3---2-  --2---3---0---2---3---0- -t-
a--0---2----- -a- -a- --3---3-  --0---3-------3---3----- -a-
e------3----- -g- -g- -(1)----  -----(1)---------(1)---- -g-
                                  Rose, stay in...

SOLO 2

e------------------------------------------------------------------- -|
h---------------------------(5-5-3-1-1^3-1)-----10-12-12^13^12-10-12 -|
g--6-4^6^4-2-4^5^4-2-2-----5-5-5-4-2-2^4-2-9-11--------------------- -|
d----------------------3-2------------------------------------------ -|
a------------------------------------------------------------------- -|
e------------------------------------------------------------------- -|

e--------12--------------------------------------------------------------------|
h--12^14----14-12^13^12-10-12-12^13^12-----------------------------------------|
g--------------------------------------9^10^9-10-12-9-9-10-12-10-9-------------|
d------------------------------------------------------------------12^10^9^7^2-|
a------------------------------------------------------------------------------|
e------------------------------------------------------------------------------|
Tap to rate this tab
# A B C D E F G H I J K L M N O P Q R S T U V W X Y Z