Kaskade - Your Love Is Black tab

saw that this wasn't on here when I wanted to learn it so I did it on my own.  This is 
basic rift or how I played it...

E---------------------------------------------------|
B---3-3-3---1-1-1---1-1-1---------------------------|
G---0-0-0---0-0-0---0-0-0---3-3-3---3-3-3---2-2-2---|
D---1-1-1---1-1-1---0-0-0---5-5-5---5-5-5---5-5-5---|
A---------------------------5-5-5---3-3-3---3-3-3---|
E-------------------3-3-3---3-3-3-------------------|

E-------------------|
B-------------------|
G---2-2-2---3-3-3---|
D---3-3-3---3-3-3---|
A---1-1-1---1-1-1---|
E-------------------|

and repeat =]
Tap to rate this tab
 
# A B C D E F G H I J K L M N O P Q R S T U V W X Y Z