Kaskade - Be Still tab

Kaskade
Be Still (Album Version)
Guitar Tab
Standard Tuning - EADGBE
Tabbed By Jonathan Mack

This Is The Second Track From Kaskades: Love Mysterious
Album.

x Muted Note (Dead Note)
/ Slide Up
\ Slide Down
b Bend String
r Release String



Intro

Rhythm Guitar
0:01
|--------------------------------|--------------------------------|
|--------------------------------|--------------------------------|
|--------------------------------|--------------------------------|
|--------------------------------|--------------------------------| x1
|5555555x------------------------|5555555x------------------------|
|--------5-55555x3333333x11111111|--------5-55555x3333333-55555555|


Verse One

Although There Is No Guitar/Bassline During
The First Verse,I Prefer To Play This.
Hitting Each Note And Letting Them Ring Out
Until Just Before The Chorus.

Rhythm Guitar
0:16
|----------|----------|
|----------|----------|
|----------|----------|
|----------|----------| x1
|5---------|5---------|
|---5--3--1|---5--3--5|

0:32
|----------|------------------|
|----------|------------------|
|----------|------------------|
|----------|------------------| x1
|5---------|5-----------------|
|---5--3--1|---5--3-5555555555|


Chorus One

Rhythm Guitar
0:46
|--------------------------------|--------------------------------|
|--------------------------------|--------------------------------|
|--------------------------------|--------------------------------|
|--------------------------------|--------------------------------| x4
|5555555x------------------------|5555555x------------------------|
|--------5-55555x3333333x11111111|--------5-55555x3333333-55555555|


Verse Two

Rhythm Guitar
1:17
|------------------------------------------------------------->
|------------------------------------------------------------->
|------------------------------------------------------------->
|------------------------------------------------------------->
|77777777-7/10-10101010101010-12121212121212121212121212121212>
|------------------------------------------------------------->

|---------------------------------------------|
|---------------------------------------------|
|---------------------------------------------|
|---------------------------------------------| x2
|77777777-7/10-10101010101010-5557775553335555|
|---------------------------------------------|

1:47
|------------------------------------------------------------->
|------------------------------------------------------------->
|------------------------------------------------------------->
|------------------------------------------------------------->
|77777777-7/10-10101010101010-12121212121212121212121212121212>
|------------------------------------------------------------->

1:55
|--------------------------------------------------------------|
|--------------------------------------------------------------|
|--------------------------------------------------------------|
|--------------------------------------------------------------| x1
|77777777-7/10-101010101010101010101010101010101010101010101010|
|--------------------------------------------------------------|


Pre Chorus

Rhythm Guitar

2:02
|--------------------------------|--------------------------------|
|--------------------------------|--------------------------------|
|--------------------------------|--------------------------------|
|--------------------------------|--------------------------------| x1
|5555555x------------------------|5555555x------------------------|
|--------5-55555x3333333x11111111|--------5-55555x3333333-55555555|


Chorus Two

Rhythm Guitar - (Played All The Way Through To The Outro)
2:17
|--------------------------------|--------------------------------|
|--------------------------------|--------------------------------|
|--------------------------------|--------------------------------|
|--------------------------------|--------------------------------| x5
|5555555x------------------------|5555555x------------------------|
|--------5-55555x3333333x11111111|--------5-55555x3333333-55555555|


Solo

Lead Guitar
3:03
|---------------------------------------------------------------------------------->
|----------------------8/10-10br-8-10-10br-8-10-10br-8-10-10br-8-10-10b-10b-10b-10b>
|-------------7/9-9/12------------------------------------------------------------->
|9-9/10-10/12---------------------------------------------------------------------->
|---------------------------------------------------------------------------------->
|---------------------------------------------------------------------------------->

3:11
|---------------------------------------------------------------------------------->
|10b10b-10b10b10b10b-10b10b-10b10b10b10b-10b10b-10b10b10b10b-10b10b10b10b10b10b10b\>
|---------------------------------------------------------------------------------->
|---------------------------------------------------------------------------------->
|---------------------------------------------------------------------------------->
|---------------------------------------------------------------------------------->

3:18
|----------------------------------------------------------------------------------->
|555555555555555555555555555555/8-88-8/10-10b10b10b10b10b10b10b10b10b10b10b10b10b10b>
|----------------------------------------------------------------------------------->
|----------------------------------------------------------------------------------->
|----------------------------------------------------------------------------------->
|----------------------------------------------------------------------------------->

|---------------------------------------------------|
|10b10b10b10b10b10b10b10b10b10b10b10b10b10b10b10b10b|
|---------------------------------------------------|
|---------------------------------------------------| x1
|---------------------------------------------------|
|---------------------------------------------------|

Outro

3:33
|---------------|
|555-333/555-333|
|---------------|
|---------------| x3
|---------------|
|---------------|
Tap to rate this tab
 
# A B C D E F G H I J K L M N O P Q R S T U V W X Y Z