Song name
# A B C D E F G H I J K L M N O P Q R S T U V W X Y Z

Kassidy - Hope St chords

Highlighted       Show chord diagrams
---------------------------------------------------------------------
	                HOPE ST. - Kassidy
---------------------------------------------------------------------
tabbed by : JonnyG
e-mail : dafc.jg@hotmail.co.uk

Tabbed from a video lesson from the band themselves. 
Strumming is fairly easy and repetitive just listen to the song and you should be 
able to pick it up.

INTRO/VERSE
    
    Cm   D#    A#   G#   F
e|---3----6----6----4----1------------------------------------------|
B|---4----8----6----4----1------------------------------------------|
G|---5----8----7----5----2------------------------------------------|
D|---5----8----8----6----3------------------------------------------|
A|---3----6----8----6----3------------------------------------------|
E|-------------6----4----1------------------------------------------|
 There's a whisper i always hear, screaming out never been so clear
You think you're right but you got it wrong, givin up on all your rag & bones  
I took a ride up to i don't know, crossed the lines where no-one else would go
I can tell you all the things i've done, i've lived a life as if i've lost my own

CHORUS
    G#   D#    A#   F
e|---4----6----6----1-----------------------------------------------|
B|---4----8----6----1-----------------------------------------------|
G|---5----8----7----2-----------------------------------------------|
D|---6----8----8----3-----------------------------------------------|
A|---6----6----8----3-----------------------------------------------|
E|---4---------6----1-----------------------------------------------|
 And you can hold me down, take the pain away, the pain away
Hope i've found, another day, like yesterday

VERSE
    Cm   D#    A#   G#   F
e|---3----6----6----4----1------------------------------------------|
B|---4----8----6----4----1------------------------------------------|
G|---5----8----7----5----2------------------------------------------|
D|---5----8----8----6----3------------------------------------------|
A|---3----6----8----6----3------------------------------------------|
E|-------------6----4----1------------------------------------------|
 I took a ride up to i don't know, crossed the lines where no-one else would go
And I can tell you all the things i've done, i've lived a life as if i've lost my own


CHORUS


OUTRO
    G#   A#    Cm   F
e|---4----6----8----1-----------------------------------------------|
B|---4----6----8----1-----------------------------------------------|
G|---5----7----8----2-----------------------------------------------|
D|---6----8----10---3-----------------------------------------------|
A|---6----8----10---3-----------------------------------------------|
E|---4----6----8----1-----------------------------------------------|
 So what you gonna do now? now i've found a way in
So what you gonna do now? now i've found a way in
So what you gonna do now? now i've found a way in
So what you gonna do now? what you gonna do now?
Tap to rate this tab
 
# A B C D E F G H I J K L M N O P Q R S T U V W X Y Z