Song name
# A B C D E F G H I J K L M N O P Q R S T U V W X Y Z

Kat-tun - Kizuna Bond tab

This is my first tab on here. I've been searching around the internet and no one has 
out this song so, here i am putting this out there. i hope someday some one'll help me out 
this, 'cause i can't exactly figure out the chorus. oh well, i might or might not. 
anyways here it is.

Intro
                 Em		                         C
e|--6/7--5--3----------0------6/7--5--3--------------0---|
B|-------------------0-----------------------------------|
G|-----------------0------------------------------0------|
D|---------------2-----------------------------2---------|
A|------------------------------------------3------------|
E|-------------------------------------------------------|

	                Dsus4	  	                D
e|--6/7--5--3-----------3--------2/3--5--2--|
B|--------------------3--------3---------3--|
G|------------------2--------------------2--|
D|---------------0-----------------------0--|
A|------------------------------------------|
E|------------------------------------------|
Note: the slides in the intro are done fast, so you don't necessarily need to play the 
of the "6/7"


Verses
     Em   	      C             Dsus4
e|--------0--------------0------------3--------------3/2-----|
B|------0---------------------------3--------------3------3--|
G|----0--------------0------------2--------------2-----------|
D|--2--------------2-----------0--------------0--------------|
A|---------------3-------------------------------------------|
E|-----------------------------------------------------------|

Before bridge
    Em	           C	           Dsus4
e|--------0--------------0-----------3---------3/2-----2--|
B|------0--------------------------3-----------3---3------|
G|----0--------------0-----------2-------------2-----2----|
D|--2--------------2-----------0---------------0----------|
A|---------------3----------------------------------------|
E|--------------------------------------------------------|
Tap to rate this tab
 
# A B C D E F G H I J K L M N O P Q R S T U V W X Y Z