Song name
# A B C D E F G H I J K L M N O P Q R S T U V W X Y Z

Kataklysm - The Resurrected tab

The Resurrected
By:Katakylsm
Album: Serenity in Fire

Drop B tuning


(0:00 - 0:20)
|---------------------------------------------|
|---------------------------------------------|
|---------------------------------------------|
|---------------------------------------------|
|5---3/5---3/5---6---6---5---3/5---3/5--0-2-3-|
|-000---000---000--0---0--000---000-----0-2-3-|


(0:21 -
|--------------------------------------------------------------|
|--------------------------------------------------------------|
|--------------------------------------------------------------|  this riff
|--------------------------------------------------------------|  continues
|-------------------------1------------------------------------|  underneath
|000000003-000000003-0000-1--000000003-000000003-00-7-8-10-8-7-|


   - 0:40)
|--------------------------------------------------------------|
|--------------------------------------------------------------|
|--------------------------------------------------------------|
|--------------------------------------------------------------|
|-------------------------1-----------------------------1-0-3*-|
|000000003-000000003-0000-1--000000003-000000003-000000--------|

(0:41 - 0:51)
|---------------------------------|
|---------------------------------|
|---------------------------------|
|---------------------------------|
|---------------------------------|
|000-000-333-222-222-222--320-532-|


(0:51 - 0:52)Bridge
|----------|
|----------|
|----------|
|----------|
|0-0---0-0-|
|0-0---0-0-|

(0:53 - 1:12)
|---------------------------------------------|
|---------------------------------------------|
|---------------------------------------------|
|---------------------------------------------|
|5---3/5---3/5---6---6---5---3/5---3/5--0-2-3-|
|-000---000---000--0---0--000---000-----0-2-3-|


(1:13 - 1:37)
|--------------------------------------------------------------|
|--------------------------------------------------------------|
|--------------------------------------------------------------|  this riff
|--------------------------------------------------------------|  continues
|-------------------------1------------------------------------|  underneath
|000000003-000000003-0000-1--000000003-000000003-00-7-8-10-8-7-|


|--------------------------------------------------------------|
|--------------------------------------------------------------|
|--------------------------------------------------------------|
|--------------------------------------------------------------|
|-------------------------1-----------------------------1-0-3*-|
|000000003-000000003-0000-1--000000003-000000003-000000--------|

(1:37 - 1:47)
|---------------------------------|
|---------------------------------|
|---------------------------------|
|---------------------------------|
|---------------------------------|
|000-000-333-222-222-222--320-532-|


(1:47 - 1:48) Bridge Again
|----------|
|----------|
|----------|
|----------|
|0-0---0-0-|
|0-0---0-0-|


(1:49 - 1:56
|--------------------|
|--------------------|
|--------------------|
|--------------------|
|0-0-3-2-2-2---------|
|0-0-3-2-2-2-320-532-|
 pm this part

(1:57 - 2:07)
|--------------------|
|--------------------|
|--------------------|
|--------------------|
|0-0-3-2-2-2---------|
|0-0-3-2-2-2-320-532-|
   not pm


(2:08 - 2:29)
|-------------------------------------|
|-------------------------------------|
|-------------------------------------|
|0-0-0-0-7----------------------------|
|8-8-8-8-8--0-0-0-0-0--3-3-3-3--1-1-1-|
|-----------0-0-0-0-0--3-3-3-3--1-1-1-|


(2:30 - 2:49)
|---------------------------------------------|
|---------------------------------------------|
|---------------------------------------------|
|---------------------------------------------|
|5---3/5---3/5---6---6---5---3/5---3/5--0-2-3-|
|-000---000---000--0---0--000---000-----0-2-3-|


(2:50 - 3:00)
|---------------------------------|
|---------------------------------|
|---------------------------------|
|---------------------------------|
|---------------------------------|
|000-000-333-222-222-222--320-532-|


(3:01 - 3:02) Bridge again.
|----------|
|----------|
|----------|
|----------|
|0-0---0-0-|
|0-0---0-0-|


(3:02 - 3:12)
|--------------------|
|--------------------|
|--------------------|
|--------------------|
|0-0-3-2-2-2---------|
|0-0-3-2-2-2-320-532-|
 pm this part


(3:12 - 3:26 end of song)
|----------------------|
|----------------------|
|----------------------|
|--------------------0-|
|0-0-3-2-2-2---------0-|
|0-0-3-2-2-2-320-532-0-|
   not pm

Brutality.

If you have any corrections email me at evan_blackwood@yahoo.com
Tap to rate this tab
# A B C D E F G H I J K L M N O P Q R S T U V W X Y Z