Song name
# A B C D E F G H I J K L M N O P Q R S T U V W X Y Z

Kataklysm - Taking The World By Storm tab

Drop B.
For any corrections, questions or comments, email me at...
BannedFromHeaven@hotmail.com
I know this isn't 100% correct, but this is the best I had.

Intro Riff:
|----------------------------------------------------------------|
|----------------------------------------------------------------|
|----------------------------------------------------------------|
|----------------------------------------------------------------|
|-9-----11-----13-------14---13-------9-----11-----9-------8---9-|
|-0-0-0--0-0-0--0-0-0-0--0-0--0-0-0-0-0-0-0--0-0-0-0-0-0-0-0-0-0-| 
    . .    . .    . . .    .    . . .   . .    . .   . . .   .

|----------------------------------------------------------------|
|----------------------------------------------------------------|
|----------------------------------------------------------------|
|----------------------------------------------------------------|
|-9-----11-----13-------14---13-------9-----11-----9-------9---6-|
|-0-0-0--0-0-0--0-0-0-0--0-0--0-0-0-0-0-0-0--0-0-0-0-0-0-0-0-0-0-| 
    . .    . .    . . .    .    . . .   . .    . .   . . .   .

|----------------------------------------------------------------|
|----------------------------------------------------------------|
|----------------------------------------------------------------|
|----------------------------------------------------------------|
|-9-----11-----13-------14---13-------9-----11-----9-------8---9-|
|-0-0-0--0-0-0--0-0-0-0--0-0--0-0-0-0-0-0-0--0-0-0-0-0-0-0-0-0-0-| 
    . .    . .    . . .    .    . . .   . .    . .   . . .   .

|----------------------------------------------------------------|
|----------------------------------------------------------------|
|----------------------------------------------------------------|
|----------------------------------------------------------------|
|-9-----11-----13-------14---13-------9-----11-----9-------9---6-|
|-0-0-0--0-0-0--0-0-0-0--0-0--0-0-0-0-0-0-0--0-0-0-0-0-0-0-0-0-0-| 
    . .    . .    . . .    .    . . .   . .    . .   . . .   .


Verse Riff:
|-------------------------------------------------------------|
|-------------------------------------------------------------|
|-------------------------------------------------------------|
|-------------------------------------------------------------|
|-8p0-0-0-0-0-8p0-2-2-2-2-3-3-3-8p0-0-0-0-0-8p0-8-8-8-8-9-9-9-|
|-8p0-0-0-0-0-8p0-2-2-2-2-3-3-3-8p0-0-0-0-0-8p0-8-8-8-8-9-9-9-|
      . . . .     . . . . . . .     . . . .     . . . . . . .

|-------------------------------------------------------------|
|-------------------------------------------------------------|
|-------------------------------------------------------------|
|-------------------------------------------------------------|
|-8p0-0-0-0-0-8p0-2-2-2-2-3-3-3-8p0-0-0-0-0-8p0-8-8-8-8-9-9-9-|
|-8p0-0-0-0-0-8p0-2-2-2-2-3-3-3-8p0-0-0-0-0-8p0-8-8-8-8-9-9-9-|
      . . . .     . . . . . . .     . . . .     . . . . . . .
Pre-Chorus:
Note: Those are 11's, not 1's.
|-------------------------------------------------------------------------------|
|-------------------------------------------------------------------------------|
|-------------------------------------------------------------------------------|
|-------------------666666666666------------------------------------------------|
|-666666888888999999------------------------------------------------------------|
|--------------------------------9999991111111199991111111111111313131311111111-|

|-----------------------------------------------------------------|
|-----------------------------------------------------------------|
|-----------------------------------------------------------------|
|-------------------666666666666999999888866661111111111199998888-|
|-666666888888999999----------------------------------------------|
|-----------------------------------------------------------------|

|-------------------------------------------------------------------------------|
|-------------------------------------------------------------------------------|
|-------------------------------------------------------------------------------|
|-------------------666666666666------------------------------------------------|
|-666666888888999999------------------------------------------------------------|
|--------------------------------9999991111111199991111111111111313131311111111-|

|-----------------------------------------------------------------|
|-----------------------------------------------------------------|
|-----------------------------------------------------------------|
|-------------------666666666666999999888866661111111111199998888-|
|-666666888888999999----------------------------------------------|
|-----------------------------------------------------------------|

Chorus:
Note: This is one of the parts I'm not too sure about.
|--------------------------------------------------------------|
|--------------------------------------------------------------|
|--------------------------------------------------------------|
|---------6p4-2h4----------------------6p4-2h4-----------------|
|----------------4-----------------------------9-9-9-9-6-6-6-6-|
|-0-0-0-0----------0-0-0-0-0-0-0-0-0-0---------9-9-9-9-6-6-6-6-|
  . . . .          . . . . . . . . . .         . . . . . . . .

|------------------------------------------------------------------|
|------------------------------------------------------------------|
|------------------------------------------------------------------|
|---------6p4-2h4----------------------6p4-2h4---------------------|
|----------------4-----------------------------9-9-9-9-11-11-11-11-|
|-0-0-0-0----------0-0-0-0-0-0-0-0-0-0---------9-9-9-9-11-11-11-11-|
  . . . .          . . . . . . . . . .         . . . .  .  .  .  .

Bridge:
|-----------------------------------------------------------------|
|-----------------------------------------------------------------|
|-----------------------------------------------------------------|
|-9-9-9-9-9-9-9-9-6-6-6-6-6-6-6-6-8-8-8-8-8-8-8-8-4-4-4-4-4-4-4-4-|
|-----------------------------------------------------------------|
|-----------------------------------------------------------------|

|-------------------------------------------------------------------------|
|-------------------------------------------------------------------------|
|-------------------------------------------------------------------------|
|-9-9-9-9-9-9-9-9-6-6-6-6-6-6-6-6-8-8-8-8-8-8-8-8-11-11-11-11-11-11-11-11-|
|-------------------------------------------------------------------------|
|-------------------------------------------------------------------------|

Solo:
|--------------------------------------------------------------------|
|--------------------------------------------------------------------|
|-8-4---8-4---8-4-----------------6-3---6-3--6-3-8-6h8p6-------------|
|-----6-----6-----9-6---9-6---9-6-----4----4-------------8-9-8h9p8-6-|
|---------------------7-----7----------------------------------------|
|--------------------------------------------------------------------|

|-------------------------------------------------------------------------|
|-------------------------------------------------------------------------|
|-8-4---8-4---8-4---------------------------------------------------------|
|-----6-----6-----9-6---9-6---9-6---4-6-8-4-6-8-9-6-8-9-11-8-9-11-13------|
|---------------------7-----7-----6----------------------------------13ph-|
|-------------------------------------------------------------------------|

Song Order: 
Intro Riff x1
Verse Riff x1
Pre-Chorus x1
Chorus x2
Intro Riff x1
Verse Riff x1
Pre-Chorus x1
Chorus x2
Bridge x1
Solo x1
Chorus x3
Tap to rate this tab
 
# A B C D E F G H I J K L M N O P Q R S T U V W X Y Z