Guitaretab - guitar tabs
Song name
# A B C D E F G H I J K L M N O P Q R S T U V W X Y Z

Kataklysm - Breath To Dominate tab

BREATH TO DOMINATE
Tune down 2  steps
(B-E-A-D-F#-B)
Tabbed By:(666kataklysm)

__=palmute
=tremble pick
p=pull off

Intro a                                                                                        
|------------------------------------------------------------------------|
|------------------------------------------------------------------------|
|------------------------------------------------------------------------|
|------------------------------------------------------------------------|
|-2----3----5----2----3----5----2----3----5------------------------------|
|-0-00-1-00-3----0-00-1-00-3----0-00-1-00-3----0-6-5-3-----------|
    __   __        __   __        __   __

Intro b                                                                                       
|------------------------------------------------------------------------|
|------------------------------------------------------------------------|
|------------------------------------------------------------------------|
|------------------------------------------------------------------------|
|-2----5----3----2----5----3----2----5----3------------------------------|
|-0-00-3-00-1----0-00-3-00-1----0-00-3-00-1----0-6-5-3-----------|
    __   __        __   __        __   __

 Intro a 
 Intro b                   

riff 1                                                                            
|-----------------------------------------------------------------------|
|-----------------------------------------------------------------------|
|-----------------------------------------------------------------------|
|-----------------------------------------------------------------------|
|-2----3----3/5---2----3---3/5--2----3---3/5----------------------------|
|-0-00-1-0--1/3---0-00-1-0-1/3--0-00-1-0-1/3----6-5-3-6-5-3-|
    __   _          __   _        __   _   
[ Tab from: http://www.guitaretab.com/k/kataklysm/181056.html ]
 
 Riff 2 a                                  x2    Riff 2 b                                     x2
|---------------------------------------------|-----------------------------------------------|
|---------------------------------------------|-----------------------------------------------|
|---------------------------------------------|-----------------------------------------------|
|---3--3--3----5--5--5---7--7--7--8-7-----|---5--5--5----7--7--7-----9---9---9-10-9---|
|-5--5--5----7--7--7---8--8--8---10-8-----|-7--7--7----9--9--9----10--10--10---12-10--|
|---------------------------------------------|-----------------------------------------------|





Fill
|----------------|
|----------------|
|----------------|
|----------------|
|-4-3-1----------|
|-6-5-3----------|

Intro riff 


Riff 3                             x8
|------------------------------------|
|------------------------------------|
|------------------------------------|
|------------------------------------|
|-2----3-----------------------------|
|-0-00-1-000--6p5p3--6p5p36p5-------|
    __   ___
    
Riff 4                    x4
|---------------------------|
|---------------------------|
|---------------------------|
|---------------------------|
|--7-9-10-12--------|
|---------------------------|

Riff 4 (Guitar 1)
|----------------------------------------------------------|
|----------------------------------------------------------|
|----------------------------------------------------------|
|-5-----4-5-----7-5--10-9----------7-----5-4---------------|
|------------------------------10------------5-------------|
|---00------00--------------00--------00-------------------|
    __      __              __        __

Riff 4 (Guitar 2)
|-----------------------------------------------------|
|-----------------------------------------------------|
|-----------------------------------------------------|
|-----------------------------------------------------|
|-5----4-5-----7-5--10-9----------7------5-4-0--------|
|---00-----00--------------00--10----00---------------|
    __     __              __        __

Play Riff 4 FOUR times then play
It again without palmutes and
Tremble pick notes 

Riff 1
Riff 2 a/b
Fill
Riff 4

End with
|-------------|
|-------------|
|-------------|
|-------------|
|----2--------|
|----0--------|

If you have any questions or comments email me at pepole_red@yahoo.com

Related for Breath To Dominate tab