Song name
# A B C D E F G H I J K L M N O P Q R S T U V W X Y Z

Kataklysm - As Death Linger tab

-------------------------------------------------------------------------------
			     as death lingers-kataklysm
-------------------------------------------------------------------------------
Tabbed by:jarret chaney
Email:fat_dude_123@yahoo.com

Tuning:standard heavy distortion

e|---------------------------------------------------------------------------|
B|---------------------------------------------------------------------------|
G|---------------------------------------------------------------------------|
D|---------------------------------------------------------------------------|
A|-2-----2----2---2---2----1--1----------------------------------------------|
E|---0-----0----0---0---0---0--0---------------------------------------------|
           play 4 times






e|---------------------------------------------------------------------------|
B|---------------------------------------------------------------------------|
G|---------------------------------------------------------------------------|
D|---------------------------------------------------------------------------|
A|------------2-3-2------------3-3-------------------------------------------|
E|---0-2-3-2-0------0-2-3-2-0--1-1-------------------------------------------|
          play 8 times 



            
e|---------------------------------------------------------------------------|
B|---------------------------------------------------------------------------|
G|---------------------------------------------------------------------------|
D|-9-----9---9--9-----9----9----10---12--------------------------------------|
A|---10---10--10--10---10----10----12--14------------------------------------|
E|---------------------------------------------------------------------------|

e|---------------------------------------------------------------------------|
B|---------------------------------------------------------------------------|
G|---------------------------------------------------------------------------|
D|-9-----9---9--9-----9----9-----7----7--------------------------------------|
A|---10---10--10--10---10----10-----9---9------------------------------------|
E|---------------------------------------------------------------------------|

e|---------------------------------------------------------------------------|
B|---------------------------------------------------------------------------|
G|---------------------------------------------------------------------------|
D|-9-----9---9--9-----9----9----10---12--------------------------------------|
A|---10---10--10--10---10----10----12--14------------------------------------|
E|---------------------------------------------------------------------------|

e|---------------------------------------------------------------------------|
B|---------------------------------------------------------------------------|
G|--7---7--7---7---7---7---5---5---------------------------------------------|
D|---9---9---9---9---9---9---7---7-------------------------------------------|
A|---------------------------------------------------------------------------|
E|---------------------------------------------------------------------------|

e|---------------------------------------------------------------------------|
B|---------------------------------------------------------------------------|
G|--7---7--7---7---7---7---9--10---------------------------------------------|
D|---9---9---9---9---9---9--10--12-------------------------------------------|
A|---------------------------------------------------------------------------|
E|---------------------------------------------------------------------------|

e|---------------------------------------------------------------------------|
B|---------------------------------------------------------------------------|
G|--7---7--7---7---7---7---5---5---------------------------------------------|
D|---9---9---9---9---9---9---7---7-------------------------------------------|
A|---------------------------------------------------------------------------|
E|---------------------------------------------------------------------------|

e|---------------------------------------------------------------------------|
B|---------------------------------------------------------------------------|
G|--7---7--7---7---7---7---9--10---------------------------------------------|
D|---9---9---9---9---9---9--10--12-------------------------------------------|
A|---------------------------------------------------------------------------|
E|---------------------------------------------------------------------------|             Chorus

    as death lingers souless we march on
    as death lingers it sells are name to the sun 
    as death lingers our souls burn at dawn
    as death lingers heartless we carry on!

e|---------------------------------------------------------------------------|
B|---------------------------------------------------------------------------|
G|---------------------------------------------------------------------------|
D|-----9-10-9-----12----10--------9-10-9------8-----7------------------------|
A|--------------------------10------------10-----9----8----------------------|
E|--0---------0------0-------------------------------------------------------|
sorry about uneveness hard to keep equidistant.
Tap to rate this tab
# A B C D E F G H I J K L M N O P Q R S T U V W X Y Z