Song name
# A B C D E F G H I J K L M N O P Q R S T U V W X Y Z

Kataklysm - Let Them Burn tab

Hey What Up!
Its D-Monster, You May Know Me or not, its ok.
here it is Let Them Burn,.its like midnight so i will do Only 
the intro now and Whole song Later
Its not that hard when you think about it..
So Here It Is...Let Them Burn-Real F**king Metal


 Gtr. 1
|-------------------------------------------------------------------------------------------|
|-------------------------------------------------------------------------------------------|
|-------------------------------------------------------------------------------------------|
|-3-3-------3-3-------2-2-------------------3-3-------3-3-------2-2-------------------------|
|-5-5-------5-5-------3-3-------------------5-5-------5-5-------3-3-------------------------|
|-----0-0-0-----0-0-0-----0-0-0--5-5--0-0-0-----0-0-0-----0-0-0-----0-0-0--3-1-0-0-5-3-0-0--|
|      . . .     . . .     . . .       . . .     . . .     . . .     . . .  . . . . . . . . |
|                                                                                           |
| Gtr. 2                                                                                    |
|-------------------------------------------------------------------------------------------|
|-------------------------------------------------------------------------------------------|
|-------------------------------------------------------------------------------------------|
|-3-----------------------------------------3-----------------------------------------------|
|-5-----------------------------------------5-----------------------------------------------|
|-------------------------------------------------------------------------------------------|



 Gtr. 1
|-------------------------------------------------------------------------------------------|
|-------------------------------------------------------------------------------------------|
|-------------------------------------------------------------------------------------------|
|-3-3-------3-3-------2-2-------------------3-3-------3-3-------2-2-------------------------|
|-5-5-------5-5-------3-3-------------------5-5-------5-5-------3-3-------------------------|
|-----0-0-0-----0-0-0-----0-0-0--5-5--0-0-0-----0-0-0-----0-0-0-----0-0-0--3-1-0-0-5-3-0-0--|
|      . . .     . . .     . . .       . . .     . . .     . . .     . . .  . . . . . . . . |
|                                                                                           |
| Gtr. 2                                                                                    |
|-------------------------------------------------------------------------------------------|
|-------------------------------------------------------------------------------------------|
|-------------------------------------------------------------------------------------------|
|-3---------3---------2---------------------3-3-------3-3-------2-2-------------------------|
|-5---------5---------3---------------------5-5-------5-5-------3-3-------------------------|
|--------------------------------5--------------0-0-0-----0-0-0-----0-0-0--3-1-0-0-5-3-0-0--|
                                                . . .     . . .     . . .  . . . . . . . . 


Both Guitars Til Verse:
|-------------------------------------------------------------------------------------------|
|-------------------------------------------------------------------------------------------|
|-------------------------------------------------------------------------------------------|
|-3-3-------3-3-------2-2-------------------3-3-------3-3-------2-2-------------------------|
|-5-5-------5-5-------3-3-------------------5-5-------5-5-------3-3-------------------------|
|-----0-0-0-----0-0-0-----0-0-0--5-5--0-0-0-----0-0-0-----0-0-0-----0-0-0--3-1-0-0-5-3-0-0--|
      . . .     . . .     . . .       . . .     . . .     . . .     . . .  . . . . . . . .

Now You Have It. The Rest Isn't That Hard to tell you the truth...
I'll put the rest in Later...now to Smoke My Bong and Party Out 
Peace!
Kataklysm Is THE Shit...
TRAITORS...LET THEM ALL BURN....
Tap to rate this tab
# A B C D E F G H I J K L M N O P Q R S T U V W X Y Z