Song name
# A B C D E F G H I J K L M N O P Q R S T U V W X Y Z

Kataklysm - Tragedy I Preach tab

--- KATAKLYSM ---
                           "The Tragedy I Preach"
                     From album: "Serenity In Fire"
                     

                            TABULATURE LEGEND:
                   " - tremolo             h - hammer on           
                   ~ - vibrato             \ - slide down
                   p - pull off            / - slide down
                  tr - tremolo picking     ^ - pinch harmonics     
                   = - sustained note      b - bend string         
                p.m. - palm muting         t - tapping

TUNING: B [B, E, A, d, g, B]

[Intro]
|----------------------------------------|-
|----------------------------------------|-
|----------------------------------------|-
|----9-7-9---------------7-5-7-----9-----|-
|--------------10--9------------------9--|-
|-0---------0---------0---------0--------|-
|                                        |
|----------------------------------------|-
|----------------------------------------|-
|----------------------------------------|-
|----------------------------------------|-
|-2=====================================-|-
|-0=====================================-|-

-|-----------------------------------------|-
-|-----------------------------------------|-
-|-----------------------------------------|-
-|------9-7-9--------------7-5-7---7h9-5~--|-
-|----------------10--9--------------------|-
-|--0----------0---------0-------0---------|-
 |                                         |
-|-----------------------------------------|-
-|-----------------------------------------|-
-|-----------------------------------------|-
-|-----------------------------------------|-
-|-----------------------------------------|-
-|-----------------------------------------|-

-|----------------------------------------|-
-|----------------------------------------|-
-|----------------------------------------|-
-|----9-7-9---------------7-5-7-----9-----|-
-|--------------10--9------------------9--|-
-|-0---------0---------0---------0--------|-
 |                                        |
-|----------------------------------------|-
-|----------------------------------------|-
-|----------------------------------------|-
-|----------------------------------------|-
-|-2=====================================-|-
-|-0=====================================-|-

-|----------------------------------------|
-|----------------------------------------|
-|----------------------------------------|
-|----9-7-9--------------7-5-7--7-9-5-7-4-|
-|--------------10--9---------------------|
-|-0---------0---------0------------------|
 |                              . . . .   |
-|----------------------------------------|
-|----------------------------------------|
-|----------------------------------------|
-|----------------------------------------|
-|----------------------------------------|
-|----------------------------------------|

[Riff 1a]
|----------------------------------------|-
|----------------------------------------|-
|----------------------------------------|-
|----9-7-9---------------7-5-7-----9-----|-
|--------------10--9------------------9--|-
|-0---------0---------0---------0--------|-

-|-----------------------------------------|-
-|-----------------------------------------|-
-|-----------------------------------------|-
-|------9-7-9--------------7-5-7---7h9-5~--|-
-|----------------10--9--------------------|-
-|--0----------0---------0-------0---------|-

-|----------------------------------------|-
-|----------------------------------------|-
-|----------------------------------------|-
-|----9-7-9---------------7-5-7-----9-----|-
-|--------------10--9------------------9--|-
-|-0---------0---------0---------0--------|-

-|----------------------------------------|
-|----------------------------------------|
-|----------------------------------------|
-|----9-7-9--------------7-5-7--7-9-5-7-4-|
-|--------------10--9---------------------|
-|-0---------0---------0------------------|
                                . . . .   
[Riff 1b]
|----------------------------------------|-
|----------------------------------------|-
|---11-9-11--------------9-7-9-----11----|-
|----9-7-9-----12--11----7-5-7-----9--11-|-
|--------------10--9------------------9--|-
|-0---------0---------0---------0--------|-

-|-----------------------------------------|-
-|-----------------------------------------|-
-|-----11-9-11-------------9-7-9---9-117~--|-
-|------9-7-9-----12--11---7-5-7---7-9-5~--|-
-|----------------10--9--------------------|-
-|--0----------0---------0-------0---------|-

-|----------------------------------------|-
-|----------------------------------------|-
-|---11-9-11--------------9-7-9-----11----|-
-|----9-7-9-----12--11----7-5-7-----9--11-|-
-|--------------10--9------------------9--|-
-|-0---------0---------0---------0--------|-

-|----------------------------------------|
-|----------------------------------------|
-|---11-9-11-------------9-7-9--9-117-9-6-|
-|----9-7-9-----12--11---7-5-7--7-9-5-7-4-|
-|--------------10--9---------------------|
-|-0---------0---------0------------------|
                                . . . . .

[Riff 2 (x2)]
||----------------------------------|---------------------------------|-
||o---------------------------------|---------------------------------|-
||----------------------------------|---------------------------------|-
||------------3---------------------|-----------3---------------------|-
||o-----2-----1---5-----2-----3-3-3-|-----2-----1---3-5-5-5-5-3-3-3-3-|-
||--0-0-0-0-0---0-3-0-0-0-0-0-1-1-1-|-0-0-0-0-0---0-1-3-3-3-3-1-1-1-1-|-
    . .   . .   .   . .   . .         . .   . .   . .   . .   . .   .

-|---------------------------------|----------------------------------||
-|---------------------------------|---------------------------------o||
-|---------------------------------|----------------------------------||
-|-----------3---------------------|-----------3-----5-5-5-5----------||
-|-----2-----1---5-----2-----3-3-3-|-----2-----1---3-3-3-3-3-6-6-6-6-o||
-|-0-0-0-0-0---0-3-0-0-0-0-0-1-1-1-|-0-0-0-0-0---0-1---------4-4-4-4--||
   . .   . .   .   . .   . .         . .   . .   .   . .     . .

[Riff 3 (x2)]
||--------------------------------|---------------------------|-
||o-------------------------------|---------------------------|-
||--------------------------------|---------------------------|-
||--9"..-----------9"..-----------|-11".-----------12"..-10".-|-
||o-------------------------------|---------------------------|-
||--7"..-0-0-0-0-0-7"..-0-0-0-0-0-|-8"..-0-0-0-0-0-10"..-8"..-|-
         . . . . .      . . . . .        . . . . .

-|-------------------------------|---------------------------||
-|-------------------------------|--------------------------o||
-|-------------------------------|---------------------------||
-|-9"..-----------9"..-----------|-11".-----------7"..-5"..--||
-|-------------------------------|--------------------------o||
-|-7"..-0-0-0-0-0-7"..-0-0-0-0-0-|-8"..-0-0-0-0-0-5"..-3"..--||
        . . . . .      . . . . .        . . . . .

[Riff 4 (x3)]
||----------------------------------|-----------------------------------||
||o---------------------------------|----------------------------------o||
||----------------------------------|-----------------------------------||
||----------------------------3-----|---------------------------3-------||
||o-2---2/3---3/5---2---------1-5-3-|-2---6\5-----3/5-2---------1-5-3--o||
||--0-0-0/1-0-1/3-0-0-0-0-0-0---3-1-|-0-0-4\3-0-0-1/3-0-0-0-0-0---3-1---||
      .     .     .   . . . .           .     . .       . . . .

[Outro]
|---------------------------------|-----------------|
|---------------------------------|-----------------|
|---------------------------------|-----------------|
|---------------------------3-----|-----------------|
|-2---2/3---3/5---2---------1-5-3-|-2---6\5-----3/5-|
|-0-0-0/1-0-1/3-0-0-0-0-0-0---3-1-|-0-0-4\3-0-0-1/3-|
    .     .     .   . . . .           .     . .

[Riff 5 (x4)]
||----------------------------------|----------------------------------||
||o---------------------------------|---------------------------------o||
||----------------------------------|----------------------------------||
||----------------------------------|-5-5-5-5-5-5-5-5------------------||
||o-7-7-7-7-7-7-7-7-3-3-3-3-3-3-3-3-|-3-3-3-3-3-3-3-3-6-6-6-6-6-6-6-6-o||
||--5-5-5-5-5-5-5-5-1-1-1-1-1-1-1-1-|-----------------4-4-4-4-4-4-4-4--||
    . . . . . . . . . . . . . . . .   . . . . . . . . . . . . . . . .

[Outro 2]
|-----------------------------------------|-
|-----------------------------------------|-
|-----------------------------------------|-
|----------5p4----------------------------|-
|-5/7----------7p5------5/7---------------|-
|-----0000---------0000-----0000-3-333333-|-
|                                         |
|-----------------------------------------|-
|-----------------------------------------|-
|-----------------------------------------|-
|-----------------------------------------|-
|-----------------------------------------|-
|-----------------------------------------|-

-|----------------------------------------|
-|----------------------------------------|
-|----------------------------------------|
-|----------5p4---------------------------|
-|-5/7----------7p5------5/7-----33332222-|
-|-----0000---------0000-----0000---------|
 |                                        |
-|----------------------------------------|
-|----------------------------------------|
-|----------------------------------------|
-|----------------------------------------|
-|-------------------------------33332222-|
-|----------------------------------------|

[Riff 6 (x3)]
||------------------------------------------|-
||o-----------------------------------------|-
||------------------------------------------|-
||-----------5p4----------------------------|-
||o-5/7----------7p5------5/7---------------|-
||------0000---------0000-----0000-3-333333-|-

-|-----------------------------------------||
-|----------------------------------------o||
-|-----------------------------------------||
-|----------5p4----------------------------||
-|-5/7----------7p5------5/7-----33332222-o||
-|-----0000---------0000-----0000----------||

[RIFF 2 (x2)] [RIFF 3 (x2)] [RIFF 4 (x3)] [OUTRO] [RIFF 5 (x4)]

[Outro B]
|----------------------------------------|-
|----------------------------------------|-
|----------------------------------------|-
|----9-7-9---------------7-5-7-----9-----|-
|--------------10--9------------------9--|-
|-0---------0---------0---------0--------|-
|                                        |
|----------------------------------------|-
|----------------------------------------|-
|----------------------------------------|-
|----------------------------------------|-
|-2=====================================-|-
|-0=====================================-|-

-|-----------------------------------------|-
-|-----------------------------------------|-
-|-----------------------------------------|-
-|------9-7-9--------------7-5-7---7h9-5~--|-
-|----------------10--9--------------------|-
-|--0----------0---------0-------0---------|-
 |                                         |
-|-----------------------------------------|-
-|-----------------------------------------|-
-|-----------------------------------------|-
-|-----------------------------------------|-
-|-----------------------------------------|-
-|-----------------------------------------|-

-|----------------------------------------|-
-|----------------------------------------|-
-|----------------------------------------|-
-|----9-7-9---------------7-5-7-----9-----|-
-|--------------10--9------------------9--|-
-|-0---------0---------0---------0--------|-
 |                                        |
-|----------------------------------------|-
-|----------------------------------------|-
-|----------------------------------------|-
-|----9-7-9---------------7-5-7-----9-----|-
-|--------------10--9------------------9--|-
-|-0---------0---------0---------0--------|-

-|----------------------------------------|
-|----------------------------------------|
-|----------------------------------------|
-|----9-7-9--------------7-5-7--7-9-5-7-4-|
-|--------------10--9---------------------|
-|-0---------0---------0------------------|
 |                              . . . .   |
-|----------------------------------------|
-|----------------------------------------|
-|----------------------------------------|
-|----9-7-9--------------7-5-7--7-9-5-7-4-|
-|--------------10--9---------------------|
-|-0---------0---------0------------------|
                                . . . .   

[RIFF 1b]

|------*|
|------*|
|------*|
|-2----*|
|-2----*|
|-0----*|

END OF SONG
Tap to rate this tab
# A B C D E F G H I J K L M N O P Q R S T U V W X Y Z