Song name
# A B C D E F G H I J K L M N O P Q R S T U V W X Y Z

Kataklysm - As I Slither tab

--- KATAKLYSM ---
                               "As I Slither"
                     From album: "Serenity In Fire"
                     Copyright Century Media 2004 
                    

                            TABULATURE LEGEND:
                   " - tremolo             h - hammer on           
                   ~ - vibrato             \ - slide down
                   p - pull off            / - slide down
                  tr - tremolo picking     ^ - pinch harmonics     
                   = - sustained note      b - bend string         
                p.m. - palm muting         t - tapping

TUNING: B [B, E, A, d, g, B]

[Intro]
|---------------------------------|----------------------------------|
|---------------------------------|----------------------------------|
|---------------------------------|----------------------------------|
|---------------------------------|----------------------------------|
|-2-3-2-3-2-3-2-3-2-3-2-3-2-5-5-5-|-2-3-2-3-2-3-2-3-2-3-2-3-2-5-3-3--|
|-0-1-0-1-0-1-0-1-0-1-0-1-0-3-3-3-|-0-1-0-1-0-1-0-1-0-1-0-1-0-3-1-1--|
| . . . . . . . . . . . . .       | . . . . . . . . . . . . .        |
|---------------------------------|----------------------------------|
|---------------------------------|----------------------------------|
|---------------------------------|----------------------------------|
|---------------------------------|----------------------------------|
|---------------------------------|----------------------------------|
|---------------------------------|----------------------------------|

[Riff 1 (x2)]
||----------------------------------|----------------------------------||
||o---------------------------------|---------------------------------o||
||----------------------------------|----------------------------------||
||----------------------------------|----------------------------------||
||o-2-3-2-3-2-3-2-3-2-3-2-3-2-5-5-5-|-2-3-2-3-2-3-2-3-2-3-2-3-2-5-3-3-o||
||--0-1-0-1-0-1-0-1-0-1-0-1-0-3-3-3-|-0-1-0-1-0-1-0-1-0-1-0-1-0-3-1-1--||
|   . . . . . . . . . . . . .       | . . . . . . . . . . . . .         |
||----------------------------------|----------------------------------||
||o---------------------------------|---------------------------------o||
||----------------------------------|----------------------------------||
||----------------------------------|----------------------------------||
||o-2-3-2-3-2-3-2-3-2-3-2-3-2-5-5-5-|-2-3-2-3-2-3-2-3-2-3-2-3-2-5-3-3-o||
||--0-1-0-1-0-1-0-1-0-1-0-1-0-3-3-3-|-0-1-0-1-0-1-0-1-0-1-0-1-0-3-1-1--||
    . . . . . . . . . . . . .         . . . . . . . . . . . . .

[Outro]
|---------------------------------|---------------------------------|
|---------------------------------|---------------------------------|
|---------------------------------|---------------------------------|
|---------------------------------|---------------------------------|
|-2---5---3-----2-------6-6-6-6-6-|-2---5---3-----2-------6-6-6-6-6-|
|-0-0-3-0-1-0-0-0-0-0-0-4-4-4-4-4-|-0-0-3-0-1-0-0-0-0-0-0-4-4-4-4-4-|
|   .   .   . .   . . .           |   .   .   . .   . . .           |
|---------------------------------|---------------------------------|
|---------------------------------|---------------------------------|
|---------------------------------|---------------------------------|
|---------------------------------|---------------------------------|
|-2-------------------------------|---------------------------------|
|-0-------------------------------|---------------------------------|
  .
 
{Riff 2 (x4)]   
||-----------------------------------||
||o---------------------------------o||
||-----------------------------------||
||-----------------------------------||
||o-2---5---3-----2-------6-6-6-6-6-o||
||--0-0-3-0-1-0-0-0-0-0-0-4-4-4-4-4--||
|     .   .   . .   . . .             |
||-----------------------------------||
||o---------------------------------o||
||-----------------------------------||
||-----------------------------------||
||o-2---5---3-----2-------6-6-6-6-6-o||
||--0-0-3-0-1-0-0-0-0-0-0-4-4-4-4-4--||
      .   .   . .   . . .

[Riff 3 (x2)]
||------------------------------|-----------------------------||
||o-----------------------------|----------------------------o||
||------------------------------|-----------------------------||
||------------------------------|-----------------------------||
||o-2--5-8--2-8-7--2-5-8-7-2-5--|-2--5-8--2-8-7--2-5-8-7-2-5-o||
||--0--3-6--0-6-5--0-3-6-5-0-3--|-0--3-6--0-6-5--0-3-6-5-0-3--||
|                               |                              |
||------------------------------|-----------------------------||
||o-----------------------------|----------------------------o||
||------------------------------|-----------------------------||
||------------------------------|-----------------------------||
||o-2--5-8--2-8-7--2-5-8-7-2-5--|-2--5-8--2-8-7--2-5-8-7-2-5-o||
||--0--3-6--0-6-5--0-3-6-5-0-3--|-0--3-6--0-6-5--0-3-6-5-0-3--||

[Riff 4 (x2)]
||------------------------------|-------------------------------||
||o-----------------------------|------------------------------o||
||------------------------------|-------------------------------||
||------------------------------|-------------------------------||
||o-2-2-5-5-4-----4-4-4-5-5-4-4-|-2-2-5-5-4-4----4-4-4-5-5-4-4-o||
||--0-0-3-3-2-----2-2-2-3-3-2-2-|-0-0-3-3-2-2----2-2-2-3-3-2-2--||
|   . . . . .     . . . . . . . | . . . . . .    . . . . . . .   |
||------------------------------|-------------------------------||
||o-----------------------------|------------------------------o||
||------------------------------|-------------------------------||
||------------------------------|-------------------------------||
||o-2-2-5-5-4-----4-4-4-5-5-4-4-|-2-2-5-5-4-4----4-4-4-5-5-4-4-o||
||--0-0-3-3-2-----2-2-2-3-3-2-2-|-0-0-3-3-2-2----2-2-2-3-3-2-2--||
    . . . . .     . . . . . . .   . . . . . .    . . . . . . .

[Riff 5a (x2)]
||---------------------------------------------|-
||o--------------------------------------------|-
||--7/9-9-9-9-12-12-12-12-11-11-11-11----------|-
||------------------------------------10-10-10-|-
||o-5/7-7-7-7-10-10-10-10--9--9--9--9----------|-
||-------------------------------------8--8--8-|-
|                                              |
||---------------------------------------------|-
||o-7/8-8-8-8-12-12-12-12-10-10-10-10-13-13-13-|-
||---------------------------------------------|-
||--4/5-5-5-5--9--9--9--9--7--7--7--7-10-10-10-|-
||o--------------------------------------------|-
||---------------------------------------------|-

-|------------------------------------------||
-|-----------------------------------------o||
-|----9-9-9-9-12-12-12-12-11-11-11-11-7-7-7-||
-|-10---------------------------------------||
-|----7-7-7-7-10-10-10-10--9--9--9--9-5-5-5o||
-|--8---------------------------------------||
 |                                           |
-|------------------------------------------||
-|-13-8-8-8-8-12-12-12-12-10-10-10-10-7-7-7o||
-|------------------------------------------||
-|-10-5-5-5-5--9--9--9--9--7--7--7--7-4-4-4-||
-|-----------------------------------------o||
-|------------------------------------------||

[Outro 2] /both guitars/
|----------||----------------------------------|
|----------||o---------------------------------|
|----------||----------------------------------|
|----------||----------------------------------|
|-2--------||o-2-3-2-3-2-3-2-3-2-3-2-3-2-5-5-5-|
|-0--------||--0-1-0-1-0-1-0-1-0-1-0-1-0-3-3-3-|


|-----------------------------------||
|----------------------------------o||
|-----------------------------------||
|-----------------------------------||
|-2-3-2-3-2-3-2-3-2-3-2-3-2-5-3-3--o||
|-0-1-0-1-0-1-0-1-0-1-0-1-0-3-1-1---||

[RIFF 2 (x4)] [RIFF 3 (x2)] [RIFF 4 (x2)]

[Riff 5b (x2)]
||---------------------------------------------|-
||o--------------------------------------------|-
||--7/9-9-9-9-12-12-12-12-11-11-11-11----------|-
||------------------------------------10-10-10-|-
||o-5/7-7-7-7-10-10-10-10--9--9--9--9----------|-
||-------------------------------------8--8--8-|-
|                                              |
||---------------------------------------------|-
||o--------------------------------------------|-
||--7/9-9-9-9-12-12-12-12-11-11-11-11----------|-
||------------------------------------10-10-10-|-
||o-5/7-7-7-7-10-10-10-10--9--9--9--9----------|-
||-------------------------------------8--8--8-|-

-|-------------------------------------------||-----------|
-|------------------------------------------o||-----------|
-|----9-9-9-9-12-12-12-12-11-11-11-11-7-7-7--||-----------|
-|-10----------------------------------------||-----------|
-|----7-7-7-7-10-10-10-10--9--9--9--9-5-5-5-o||-2---------|
-|--8----------------------------------------||-0---------|
 |                                            | .         |
-|-------------------------------------------||-----------|
-|------------------------------------------o||-----------|
-|----9-9-9-9-12-12-12-12-11-11-11-11-7-7-7--||-----------|
-|-10----------------------------------------||-----------|
-|----7-7-7-7-10-10-10-10--9--9--9--9-5-5-5-o||-2---------|
-|--8----------------------------------------||-0---------|
                                                .
[RIFF 5a (x4)]

[Ending chord]
|------------|
|------------|
|------------|
|------------|
|-2----------|
|-0----------|
  .

END OF SONG
Tap to rate this tab
 
# A B C D E F G H I J K L M N O P Q R S T U V W X Y Z