Song name
# A B C D E F G H I J K L M N O P Q R S T U V W X Y Z

Kataklysm - Resurrected tab

Band:  Kataklysm
Album: Serenity In Fire
Song:  The Resurrected



.  - palm mute           /  - slide up to
\  - slide down to       ~  - vibrato
h  - hammer on           b  - Bend
p  - pull off            Suffixes for bend
t  - tap                 f  - full bend    h - half bend
ph - pinched harmonic    q  - quarter bend t - tap bend
*  - see comment         ^  - Hold bend    r release bend
x  - Stuccatto           ~  - vibrato bend
,  - slight palm mute    () - ghost note, sustained note
"  - tremolo note        <> - Trill

Tuning: 5 half steps down (B-E-A-D-Gb-B)


Riff 1
|------------------------------|---------------------------------|
|------------------------------|---------------------------------|
|------------------------------|---------------------------------|
|5-----3/5-----3/5------7----7-|--5-----3/5-----3/5--------------|
|7-----5/7-----5/7------8----8-|--7-----5/7-----5/7------7---5---|
|--000-----000----000-0----0---|0----000----000-----0000-5-0-3-0-|
   ...     ...    ... .    .    .    ...    ...     ....   .   .


Riff 2
|---------------------------------------------------------------|
|---------------------------------------------------------------|
|---------------------------------------------------------------|
|---------------------------------------------------------------|
|--------5----------5------4----------5----------9-10-12-10-9-7-|
|000000003--000000003--00002--000000003--000000007--8-10--8-7-5-|
 ........   ........   ....   ........   .........  .  .  . . .



----------------------------------------------------------|
----------------------------------------------------------|
----------------------------------------------------------|
-----------------------------------------------------ph6bh|
--------5----------5------4----------5-------------5-4----|
000000003--000000003--00002--000000003--0000000000-3-2----|
........   ........   ....   ........   .......... . .



Riff 3a
|-------------------------------|
|-------------------------------|
|-------------------------------|
|-------------------------------|
|222-222-555-444-444-444--------|
|000-000-333-222-222-222-532532-|
 ... ... ... ... ... ... ......


Riff 3b

|------------------|
|------------------|
|------------------|
|------------------|
|2-2-5-4-4-4-------|
|0-0-3-2-2-2-532532|
 . . . . . . ......


Riff 3c

|------------------|
|------------------|
|------------------|
|------------------|
|2-2-5-4-4-4-------|
|0-0-3-2-2-2-532532|
           .


Riff 4
|----------------|
|----------------|
|----------------|
|2-2-----2-2-----|
|2-2-----2-2-----|
|0-0-----0-0-----|



Riff 5a
|--------------------------------|
|--------------------------------|
|--------------------------------|
|5-5-5-5-8-----------------------|
|7-7-7-7-7---------5-5-5-5\3-3-3-|
|----------0-0-0-0-3-3-3-3\1-1-1-|
           . . . .



Riff 5b

|--------------------------------|
|--------------------------------|
|--------------------------------|
|5-5-5-5-8-----------------------|
|7-7-7-7-7---------5-------3-----|
|----------0-0-0-0-3-------1-----|



Riff 6

|--|
|--|
|--|
|--|
|2-|
|0-|



Song Order:

4x Riff 1
2x Riff 2
4x Riff 3a
1x Riff 4
4x Riff 1
2x Riff 2
4x Riff 3a
1x Riff 4
4x Riff 3b
4x Riff 3c
3x Riff 5a
1x Riff 5b
4x Riff 5a
4x Riff 1
4x Riff 3a
1x Riff 4
4x Riff 3b
4x Riff 3c
1x Riff 6
Tap to rate this tab
# A B C D E F G H I J K L M N O P Q R S T U V W X Y Z