Song name
# A B C D E F G H I J K L M N O P Q R S T U V W X Y Z

Kataklysm - In Shadows And Dust tab

--- KATAKLYSM ---
                             "In Shadows And Dust"
                     From album: "Shadows And Dust"
                     

                            TABULATURE LEGEND:
                   " - tremolo             h - hammer on           
                   ~ - vibrato             \ - slide down
                   p - pull off            / - slide down
                  tr - tremolo picking     ^ - pinch harmonics     
                   = - sustained note      b - bend string         
                p.m. - palm muting         t - tapping

TUNING: B [B, E, A, d, g, B]

[Intro]
|-------------------------------|-------------------------------|-
|-------------------------------|-------------------------------|-
|-------------------------------|-------------------------------|-
|-------------------------------|-------------------------------|-
|-2------3-----5---------3-6-5--|-2------3-----5---------3-6-5--|-
|-0--0-0-1-0-0-3-0-0-0-0-1-4-3--|-0--0-0-1-0-0-3-0-0-0-0-1-4-3--|-
|    . .   . .   . . . .        |    . .   . .   . . . .        |
|-------------------------------|-------------------------------|-
|-------------------------------|-------------------------------|-
|-------------------------------|-------------------------------|-
|-------------------------------|-------------------------------|-
|-------------------------------|-------------------------------|-
|-------------------------------|-------------------------------|-

-|-------------------------------|---------------------|
-|-------------------------------|---------------------|
-|-------------------------------|---------------------|
-|-------------------------------|---------------------|
-|-2------3-----5---------3-6-5--|-2------3-----5------|
-|-0--0-0-1-0-0-3-0-0-0-0-1-4-3--|-0--0-0-1-0-0-3------|
 |    . .   . .   . . . .        |    . .   . . .      |
-|-------------------------------|---------------------|
-|-------------------------------|---------------------|
-|-------------------------------|---------------------|
-|-------------------------------|---------------------|
-|-2------3-----5---------3-6-5--|-2------3-----5------|
-|-0--0-0-1-0-0-3-0-0-0-0-1-4-3--|-0--0-0-1-0-0-3------|
      . .   . .   . . . .             . .   . . .

[Riff 1]
||-------------------------------[x3]-||-
||o----------------------------------o||-
||------------------------------------||-
||------------------------------------||-
||o----------3------5----------3-6-5-o||-
||--00000000-1-0000-3-00000000-1-4-3--||-

-|-------------------------------|
-|-------------------------------|
-|-------------------------------|
-|-------------------------------|
-|----------3------5-------------|
-|-00000000-1-0000-3-------------|
                   .

[Riff 2 (x8)]
||----------------------------------||
||o--------------------------------o||
||----------------------------------||
||----------------------------------||
||o-2------5-----3---------6-5-6-5-o||
||--0--0-0-3-0-0-1-0-0-0-0-4-3-4-3--||
       . .   . .   . . . . . . . .

[Outro]
|-----------------------------------|----------------------------------------|
|-----------------------------------|----------------------------------------|
|-----------------------------------|----------------------------------------|
|-----------------------------------|----------------------------------------|
|--------------------------5--5--5--|----------------------3--6--6--3--6--6--|
|-000000000000000000000000-1--1--1--|-00000000000000000000-1--4--4--1--4--4--|
|                                   |                                        |
|-----------------------------------|----------------------------------------|
|-----------------------------------|----------------------------------------|
|-----------------------------------|----------------------------------------|
|-----------------------------------|----------------------------------------|
|-2------------------------5--5--5--|-2--------------------3--6--6--3--6--6--|
|-0------------------------1--1--1--|-0--------------------1--4--4--1--4--4--|
  .                                   .

[Riff 3 (x3)]
||---------------------------------------------------------------------------||
||o-------------------------------------------------------------------------o||
||---------------------------------------------------------------------------||
||---------------------------------------------------------------------------||
||o--------------------------5--5--5-----------------------3--6--6--3--6--6-o||
||--000000000000000000000000-1--1--1--00000000000000000000-1--4--4--1--4--4--||

[Riff 4a (x2)]                     [Riff 4b (x2)]
||----------------------------||-||-----------------------------||
||o--------------------------o||-||o---------------------------o||
||----------------------------||-||-----------------------------||
||----------------------------||-||-----------------------------||
||o-2---3-2---5-2---3-6--5-3-o||-||o-2---3-2---5-2---3--6--5-3-o||
||--0---1-0---3-0---1-4--3-1--||-||--0---1-0---3-0---1--4--3-1--||
|                              | |                               |
||----------------------------||-||-----------------------------||
||o--------------------------o||-||o---------------------------o||
||----------------------------||-||-----------------------------||
||----------------------------||-||------------9----------------||
||o-2---3-2---5-2---3-6--5-3-o||-||o-7---8-7-----7---8-10--8-7-o||
||--0---1-0---3-0---1-4--3-1--||-||-----------------------------||


[Riff 5]
||-----------------------------[x3]-||----------------------|
||o--------------------------------o||----------------------|
||----------------------------------||----------------------|
||----------------------------------||----------------------|
||o-2-----3-2-----5-2-----3-6--5-3-o||-2-----3-2-----5------|
||--0-0-0-1-0-0-0-3-0-0-0-1-4--3-1--||-0-0-0-1-0-0-0-3------|
      . .     . .     . .                . .     . .

[RIFF 1] [RIFF 3 (x4)]

[Riff 6 (x8)]
||---------------||-------------|---------*|
||o-------------o||-------------|---------*|
||---------------||-------------|---------*|
||---------------||-------------|---------*|
||o-2---5--8----o||-2---5--8----|-2-------*|
||--0---3--6--0--||-0---3--6--0-|-0-------*|
|             .   |           . | .
||---------------||-------------|---------*|
||o-------------o||-------------|---------*|
||---------------||-------------|---------*|
||---------------||-------------|---------*|
||o-2---5--8----o||-2-----------|-2-------*|
||--0---3--6--0--||-0-----------|-0-------*|
              .                   .

END OF SONG
Tap to rate this tab
# A B C D E F G H I J K L M N O P Q R S T U V W X Y Z