Song name
# A B C D E F G H I J K L M N O P Q R S T U V W X Y Z

Kataklysm - Extreme To The Core tab

Band: Kataklysm
Album: Victims of this Fallen World
Song: Extreme to the Core


 
Code:
Suffixes for bend:
fb - full bend       hb - half bend
qb - quarter bend    t - tap bend
r - release bend

Suffixes for harmonic:
^ - pinched harmonic      n  natural harmonic

Suffixes for mute:
.  palm mute            x  staccato mute
, - light palm mute      ; - heavy palm mute

Other:
/ - slide up to            \ - slide down to       
h - hammer on              p - pull off
" - tremolo note           <> - Trill
* - see comment

Tuning B E A D F# B

Intro (0:00)
|----------------|
|----------------|
|----------------|
|----------------|
|-5-4---4--3--2--|
|-3-2---2--1--0--|
     x

Riff 1 (0:03) play 4 times
|----------------------------------|
|----------------------------------|
|----------------------------------|
|-----------------------------0-0--|
|-22222222222233332222222222220-0--|
|-0000000000001111000000000000-----|


Riff 2 (0:16) play 4 times
|--------------------------------------|
|--------------------------------------|
|--------------------------------------|
|-9-9-10-7-9--9-9-9--9-9-9--9-9-9--9-9-|
|-7-7-8--5-7--7-7-7--7-7-7--7-7-7--7-7-|
|--------------------------------------|

Riff 1 x 1 (0:25)

Riff 3a (0:38)
                       [x8]
|-------------------------|
|-------------------------|
|-------------------------|
|-------------------------| gtr 1
|-------5h7p5-------------|
|-000000------0000003h5p3-|
  ......      ......
                     {4, 6}
|-----------|-------------|
|-----------|-------------|
|-----------|-------------|
|-----------|-------------| gtr 2
|-----------|-2-----------|
|-----------|-0-----------|
               x

Riff 3b (0:46) play 16 times
|-------------------------|
|-------------------------|
|-------------------------|
|-------------------------|
|-------5h7p5-------------|
|-000000------0000003h5p3-|

Riff 4 (1:02) play 8 times
|---------------------------------------------|
|---------------------------------------------|
|---------------------------------------------|
|-5-3-----------------------------------------|
|-3-1-4-5-4--4-5-2-2-2-4-4--4-4-4--4-4-4--4-4-|
|-----2-3-2--2-3-0-0-0-2-2--2-2-2--2-2-2--2-2-|

Intro x 1 (1:20)
Riff 1 x 1 (1:23)

Riff 5 (1:36) play 8 times
|---------------------------------|
|---------------------------------|
|---------------------------------|
|---------------------------------|
|-2-2-2-2-2-3-5-3-5-2-2-2-2-3--2--|
|-0-0-0-0-0-1-3-1-3-0-0-0-0-1--0--|

Riff 6 (1:55)
|-------------------------------------------------------------|
|-------------------------------------------------------------|
|-------------------------------------------------------------|
|-------------------------------------------------------------|
|-2"----------------------------------------------------------|
|-0"----------------------------------------------------------|

Riff 4 x 1 (2:20)
Intro x 1 (2:37)
End (2:42)
Tap to rate this tab
 
# A B C D E F G H I J K L M N O P Q R S T U V W X Y Z