Song name
# A B C D E F G H I J K L M N O P Q R S T U V W X Y Z

Kataklysm - As My World Burns tab

Band: Kataklysm
Album: Victims of this Fallen World
Song: As My World Burns


Code:
Suffixes for bend:
fb - full bend       hb - half bend
qb - quarter bend    t - tap bend
r - release bend

Suffixes for harmonic:
^ - pinched harmonic      n – natural harmonic

Suffixes for mute:
. – palm mute            x – staccato mute
, - light palm mute      ; - heavy palm mute

Other:
/ - slide up to            \ - slide down to       
h - hammer on              p - pull off
" - tremolo note           <> - Trill
* - see comment

Tuning B E A D F# B

Intro A (0:00)
|---------------------------------------------|
|---------------------------------------------|
|---------------------------------------------|
|---------------------------------------------| gtr 1
|-----2-----3-----2h3h5-----2-----3-----3p2p0-|
|-000---0-0---0-0-------000---0-0---0-0-------|
        . .   . .             . .   . .
|---------------------------------------------|
|---------------------------------------------|
|---------------------------------------------|
|---------------------------------------------| gtr 2
|-2---------------------2---------------------|
|-0---------------------0---------------------|
  x                     x

Intro B (0:04)
|---------------------------------------------|
|---------------------------------------------|
|---------------------------------------------|
|---------------------------------------------| gtr 1
|-----2-----2-----2---------3-----3-----3p2p0-|
|-333---3-3---3-3---3-3-222---2-2---2-2-------|
        . .   . .   . .       . .   . .
|---------------------------------------------|
|---------------------------------------------|
|---------------------------------------------|
|---------------------------------5-----5\4\2-| gtr 2
|-5---------------------4---------3-----3\2\0-|
|-3---------------------2---------------------|
  x                     x         x

Intro A x 1 (0:07)
Intro B x 1 (0:11)

Riff 1a (0:14)
|---------------------------------------------|
|---------------------------------------------|
|---------------------------------------------|
|---------------------------------------------|
|-----2-----3-----2h3h5-----2-----3-----3p2p0-|
|-000---0-0---0-0-------000---0-0---0-0-------|
        . .   . .             . .   . .

Riff 1b (0:17)
|---------------------------------------------|
|---------------------------------------------|
|---------------------------------------------|
|---------------------------------------------|
|-----2-----2-----2---------3-----3-----3p2p0-|
|-333---3-3---3-3---3-3-222---2-2---2-2-------|
        . .   . .   . .       . .   . .

Riff 1a x 1 (0:21)
Riff 1b x 1 (0:24)
Riff 1a x 1 (0:27)
Riff 1b x 1 (0:31)
Riff 1a x 1 (0:34)
Riff 1b x 1 (0:37)

Fill 1 (0:40) play twice
|-------------------------------------------------|
|-------------------------------------------------|
|-------------------------------------------------|
|-------------------------------------------------|
|-------------------------------------5--7--6--9--|
|-3"-5"-4"-7"-3"-5"-4"-7"-3"-5"-4"-7"-3--5--4--7--|
                                      .  .  .  .
|-------------------------------------------------|
|-------------------------------------------------|
|-------------------------------------------------|
|-------------------------------------------------|
|-5-----------5-----------5-----------5--7--6--9--|
|-3-----------3-----------3-----------3--5--4--7--|
  x           x           x           .  .  .  .

Riff 2 (0:47) play 10 times
|-------------------------------------------------|
|-------------------------------------------------|
|-------------------------------------------------|
|-------------------------------------------------|
|-------------------------------------------------|
|-3"-5"-4"-7"-3"-5"-4"-7"-3"-5"-4"-7"-3"-5"-4"-7"-|

Riff 1a x 1 (1:13)
Riff 1b x 1 (1:16)
Riff 1a x 1 (1:19)
Riff 1b x 1 (1:22)
Riff 1a x 1 (1:26)
Riff 1b x 1 (1:29)

Riff 3 (1:33) play 14 times
|-------------------------------|
|-------------------------------|
|-------------------------------|
|-------------------------------|
|---5\4---5\4---5\4-8-8-8-8-8-8-|
|-0-3\2-0-3\2-0-3\2-6-6-6-6-6-6-|
  .     .     .

Riff 2 x 1 (2:03)

Fill 3 (2:21)
|----|
|----|
|----|
|----|
|-2--|
|-0--|
  x

Drum fill (2:22)
Riff 4 consists entire of strange artificial harmonic patterns that I
can’t be arsed to tab (2:24)

Riff 5 (2:36) play 8 times – listen for variations on the palm muting
|-------------------------------------|
|-------------------------------------|
|-------------------------------------|
|-------------------------------------|
|-5--5--5--4--4--4--7--7--7--8--8--8--|
|-3--3--3--2--2--2--5--5--5--6--6--6--|
     .  .     .  .     .  .     .  .

Riff 4 x 1 (3:00)
Riff 5 x 1 (3:12)
Fill 1 x 1 (3:37)
Riff 2 x 1 (3:43)
Riff 1a x 1 (4:10)
Riff 1b x 1 (4:13)
Riff 1a x 1 (4:16)
Riff 1b x 1 (4:19)
Riff 1a x 1 (4:23)
Riff 1b x 1 (4:26)
Riff 1a x 1 (4:29)
Riff 1b x 1 (4:32)

Riff 6 (4:35) play 10 times – fade out towards end
|---------------------------------------------------------|
|---------------------------------------------------------|
|---------------------------------------------------------|
|---------------------------------------------------------|
|-2---0--0--0--5---5--5\4--4---4--4/7--7--7/9--9--9\7--7--|
|-0---0--0--0--3---3--3\2--2---2--2/5--5--5/7--7--7\5--5--|
      .  .  .                                          .

End (5:40)
Tap to rate this tab
# A B C D E F G H I J K L M N O P Q R S T U V W X Y Z