Song name
# A B C D E F G H I J K L M N O P Q R S T U V W X Y Z

Kataklysm - Where The Enemy Sleeps tab

Help us improve GuitareTab! Take a short survey!
----------------------------------------------------------------------------
			     Where the enemy sleeps - Kataklysm
----------------------------------------------------------------------------
Tabbed by: That Guy Standing Behind You
Email: confukulations@yahoo.com

Tuning:B

Guitar 1
----------------------------------------------------------------------------|
----------------------------------------------------------------------------|
----------------------------------------------------------------------------|
----------------------------------------------------------------------------|
10-10-10-10-----7-----9-------10-10-10-10-----7-----9-----------------------|
-----------0-0-0-0-0-0-0-0-0-0-----------0-0-0-0-0-0-0-0-0-0----------------|

----------------------------------------------------------------------------|
----------------------------------------------------------------------------|
----------------------------------------------------------------------------|
----------------------------------------------------------------------------|
10-10-10-10-----7-----9-------10-10-10-10--------7--------9-----------------|
-----------8-8-8-8-8-8-8-8-8-8-----------10-10-10-10-10-10-10-10-10-10------|


Guitar 2
----------------------------------------------------------------------------|
----------------------------------------------------------------------------|
----------------------------------------------------------------------------|
9-9-9-9---------------------9-9-9-9-----------------------------------------|
------------10-----12--------------------10------12-------------------------|
-------0-0-0--0-0-0--0-0-0-0--------0-0-0---0-0-0--0-0-0-0------------------|


----------------------------------------------------------------------------|
----------------------------------------------------------------------------|
----------------------------------------------------------------------------|
9-9-9-9----------------------9-9-9-9----------------------------------------|
-------------10-----12-----------------------10--------12-------------------|
--------8-8-8--8-8-8--8-8-8-8--------10-10-10--10-10-10--10-10-10-10--------|

Have a Buddy Play One Part While You PLay the other and you'll see why this tab is 100% correct.


| /  slide up
| \  slide down
| h  hammer-on
| p  pull-off
| ~  vibrato
| +  harmonic
| x  Mute note
===============================================================================
Related for Where The Enemy Sleeps tab