Song name
# A B C D E F G H I J K L M N O P Q R S T U V W X Y Z

Kataklysm - Road To Devastation tab

Help us improve GuitareTab! Take a short survey!
Song: The Road To Devastation
Band: Kataklysm
CD:   In the Arms of Devastation
Year: 2006
Part: Rhythm
Tuning: B (B-E-A-D-F#-B)

(Taken from the guitar pro file, I take no credit for this)

 2x
||------------------------------|--------------------------------|----------------------------|--------------------------|
||------------------------------|--------------------------------|----------------------------|--------------------------|
||--2--2--2--2---2---2---2---2--|---2---2---2---2---2---2--2--2--|----------------------------|--------------------------|
||--2--2--2--2---2---2---2---2--|---2---2---2---2---2---2--2--2--|---2---2--2--2--2--2--2--2--|--2--2--2--2--2--2--2--2--|
||--0--0--0--0---0---0---0---0--|---0---0---0---0---0---0--0--0--|---2---2--2--2--2--2--2--2--|--2--2--2--2--2--2--2--2--|
||------------------------------|--------------------------------|---0---0--0--0--0--0--0--0--|--0--0--0--0--0--0--0--0--|
||
||
||------------------------------|--------------------------------|----------------------------|--------------------------|
||------------------------------|--------------------------------|----------------------------|--------------------------|
||------------------------------|--------------------------------|----------------------------|--------------------------|
||--9--9--9--9--10--10--10--10--|--10--10--12--12--10--10--9--9--|--10--10--9--9--9--9--7--7--|--6--6--6--6--6--6--6--6--|
||------------------------------|--------------------------------|----------------------------|--------------------------|
||------------------------------|--------------------------------|----------------------------|--------------------------|


|------------------------------|--------------------------------|----------------------------|--------------------------||
|------------------------------|--------------------------------|----------------------------|--------------------------||
|--2--2--2--2---2---2---2---2--|---2---2---2---2---2---2--2--2--|----------------------------|--------------------------||
|--2--2--2--2---2---2---2---2--|---2---2---2---2---2---2--2--2--|---2---2--2--2--2--2--2--2--|--2--2--2--2--2--2--2--2--||
|--0--0--0--0---0---0---0---0--|---0---0---0---0---0---0--0--0--|---2---2--2--2--2--2--2--2--|--2--2--2--2--2--2--2--2--||
|------------------------------|--------------------------------|---0---0--0--0--0--0--0--0--|--0--0--0--0--0--0--0--0--||
|
|------------------------------|--------------------------------|----------------------------|--------------------------||
|------------------------------|--------------------------------|----------------------------|--------------------------||
|------------------------------|--------------------------------|----------------------------|--------------------------||
|--9--9--9--9--10--10--10--10--|--10--10--12--12--10--10--9--9--|--10--10--9--9--9--9--7--7--|--6--6--6--6--------------||
|------------------------------|--------------------------------|----------------------------|--------------8--8--7--7--||
|------------------------------|--------------------------------|----------------------------|--------------------------||


 2x
||--------------------------|--------------------------|--------------------------|--------------------------|
||--------------------------|--------------------------|--------------------------|--------------------------|
||--------------------------|--7--7--7--7--7--7--7--7--|--5--5--5--5--5--5--5--5--|--5--5--7--7--5--5--4--4--|
||--2--2--2--2--2--2--2--2--|--5--5--5--5--5--5--5--5--|--5--5--5--5--5--5--5--5--|--5--5--7--7--5--5--4--4--|
||--2--2--2--2--2--2--2--2--|--5--5--5--5--5--5--5--5--|--3--3--3--3--3--3--3--3--|--3--3--5--5--3--3--2--2--|
||--0--0--0--0--0--0--0--0--|--------------------------|--------------------------|--------------------------|



|--------------------------|--------------------------|--------------------------|--------------------------||
|--------------------------|--------------------------|--------------------------|--------------------------||
|--------------------------|--7--7--7--7--7--7--7--7--|--5--5--5--5--5--5--5--5--|--5--5--5--5--5--5--7--7--||
|--2--2--2--2--2--2--2--2--|--5--5--5--5--5--5--5--5--|--5--5--5--5--5--5--5--5--|--5--5--5--5--5--5--7--7--||
|--2--2--2--2--2--2--2--2--|--5--5--5--5--5--5--5--5--|--3--3--3--3--3--3--3--3--|--3--3--3--3--3--3--5--5--||
|--0--0--0--0--0--0--0--0--|--------------------------|--------------------------|--------------------------||


 2x
||--------------------------|--------------------------|--------------------------|--------------------------|
||--------------------------|--------------------------|--------------------------|--------------------------|
||--------------------------|--------------------------|--x--5--5--5--5--5--5--5--|--5--2--2--2--2--2--2--2--|
||--2-----------------------|--2-----------------------|--x--5--5--5--5--5--5--5--|--5--2--2--2--2--2--2--2--|
||--2-----------------------|--2-----------------------|--x--3--3--3--3--3--3--3--|--3--0--0--0--0--0--0--0--|
||--0----0--0--0-0-0--0--0--|--0----0--0--0-0-0--0--0--|--------------------------|--------------------------|



|--------------------------|--------------------------|--------------------------|--------------------------||
|--------------------------|--------------------------|--------------------------|--------------------------||
|--------------------------|--------------------------|--x--7--7--7--7--7--7--7--|--7--2--2--2--2--2--2--2--||
|--2-----------------------|--2-----------------------|--x--7--7--7--7--7--7--7--|--7--2--2--2--2--2--2--2--||
|--2-----------------------|--2-----------------------|--x--5--5--5--5--5--5--5--|--5--0--0--0--0--0--0--0--||
|--0----0--0--0-0-0--0--0--|--0----0--0--0-0-0--0--0--|--------------------------|--------------------------||


 2x
||--------------------------|------------------------------|--------------------------|---------------------------||
||--------------------------|------------------------------|--------------------------|---------------------------||
||--------------------------|------------------------------|--------------------------|---------------------------||
||--9-----9-----9-----9-----|--10-------------------12-----|--9-----9-----9-----9-----|--7-----7-----7-----10-----||
||-----7-----7-----7-----7--|------9h--10--9---------------|-----7-----7-----7-----7--|-----5-----5-----5------8--||
||--------------------------|------------------------------|--------------------------|---------------------------||


 2x
||-----------------------------|---------------------------|--------------------------|--------------------------|
||-----------------------------|---------------------------|--------------------------|--------------------------|
||--2--2--2--2--2---2---2---2--|---2--2--2--2--2--2--2--2--|--5--5--5--5--5--5--5--5--|--5--5--5--5--5--5--5--5--|
||--2--2--2--2--2---2---2---2--|---2--2--2--2--2--2--2--2--|--5--5--5--5--5--5--5--5--|--5--5--5--5--5--5--5--5--|
||--0--0--0--0--0---0---0---0--|---0--0--0--0--0--0--0--0--|--3--3--3--3--3--3--3--3--|--3--3--3--3--3--3--3--3--|
||-----------------------------|---------------------------|--------------------------|--------------------------|
||
||-----------------------------|---------------------------|--------------------------|--------------------------|
||-----------------------------|---------------------------|--------------------------|--------------------------|
||-----------------------------|---------------------------|-----------------7--7--7--|--7--5--5--5--5--4--4--4--|
||--7--7--7--7--7--10--10--10--|--10--9--9--9--9--7--7--7--|--7--7--7--7--7-----------|--------------------------|
||-----------------------------|---------------------------|--------------------------|--------------------------|
||-----------------------------|---------------------------|--------------------------|--------------------------|



|--------------------------|--------------------------|--------------------------|--------------------------||
|--------------------------|--------------------------|--------------------------|--------------------------||
|--7--7--7--7--7--7--7--7--|--7--7--7--7--7--7--7--7--|--5--5--5--5--5--5--5--5--|--5--5--------------------||
|--7--7--7--7--7--7--7--7--|--7--7--7--7--7--7--7--7--|--5--5--5--5--5--5--5--5--|--5--5--5--5--5--5--5--5--||
|--5--5--5--5--5--5--5--5--|--5--5--5--5--5--5--5--5--|--3--3--3--3--3--3--3--3--|--3--3--5--5--5--5--5--5--||
|--------------------------|--------------------------|--------------------------|--------3--3--3--3--3--3--||
|
|--------------------------|--------------------------|--------------------------|--------------------------||
|--------------------------|--------------------------|--------------------------|--------------------------||
|--4--------------9--9--9--|--9--7--7--7--7--5--5--5--|--5--4--4--4--4--5--5--5--|--5--4--4--4--4-----------||
|-----7--7--7--7-----------|--------------------------|--------------------------|-----------------7--7--7--||
|--------------------------|--------------------------|--------------------------|--------------------------||
|--------------------------|--------------------------|--------------------------|--------------------------||


 2x
||------------------------------|--------------------------------|----------------------------|--------------------------|
||------------------------------|--------------------------------|----------------------------|--------------------------| 
||--2--2--2--2---2---2---2---2--|---2---2---2---2---2---2--2--2--|----------------------------|--------------------------|
||--2--2--2--2---2---2---2---2--|---2---2---2---2---2---2--2--2--|---2---2--2--2--2--2--2--2--|--2--2--2--2--2--2--2--2--|
||--0--0--0--0---0---0---0---0--|---0---0---0---0---0---0--0--0--|---2---2--2--2--2--2--2--2--|--2--2--2--2--2--2--2--2--|
||------------------------------|--------------------------------|---0---0--0--0--0--0--0--0--|--0--0--0--0--0--0--0--0--|
||
||
||------------------------------|--------------------------------|----------------------------|--------------------------|
||------------------------------|--------------------------------|----------------------------|--------------------------|
||------------------------------|--------------------------------|----------------------------|--------------------------|
||--9--9--9--9--10--10--10--10--|--10--10--12--12--10--10--9--9--|--10--10--9--9--9--9--7--7--|--6--6--6--6--6--6--6--6--|
||------------------------------|--------------------------------|----------------------------|--------------------------|
||------------------------------|--------------------------------|----------------------------|--------------------------|


|------------------------------|--------------------------------|----------------------------|--------------------------||
|------------------------------|--------------------------------|----------------------------|--------------------------||
|--2--2--2--2---2---2---2---2--|---2---2---2---2---2---2--2--2--|----------------------------|--------------------------||
|--2--2--2--2---2---2---2---2--|---2---2---2---2---2---2--2--2--|---2---2--2--2--2--2--2--2--|--2--2--2--2--2--2--2--2--||
|--0--0--0--0---0---0---0---0--|---0---0---0---0---0---0--0--0--|---2---2--2--2--2--2--2--2--|--2--2--2--2--2--2--2--2--||
|------------------------------|--------------------------------|---0---0--0--0--0--0--0--0--|--0--0--0--0--0--0--0--0--||
|
|------------------------------|--------------------------------|----------------------------|--------------------------||
|------------------------------|--------------------------------|----------------------------|--------------------------||
|------------------------------|--------------------------------|----------------------------|--------------------------||
|--9--9--9--9--10--10--10--10--|--10--10--12--12--10--10--9--9--|--10--10--9--9--9--9--7--7--|--6--6--6--6--------------||
|------------------------------|--------------------------------|----------------------------|--------------8--8--7--7--||
|------------------------------|--------------------------------|----------------------------|--------------------------||

 2x
||--------------------------|--------------------------|--------------------------|--------------------------|
||--------------------------|--------------------------|--------------------------|--------------------------|
||--------------------------|--7--7--7--7--7--7--7--7--|--5--5--5--5--5--5--5--5--|--5--5--7--7--5--5--4--4--|
||--2--2--2--2--2--2--2--2--|--5--5--5--5--5--5--5--5--|--5--5--5--5--5--5--5--5--|--5--5--7--7--5--5--4--4--|
||--2--2--2--2--2--2--2--2--|--5--5--5--5--5--5--5--5--|--3--3--3--3--3--3--3--3--|--3--3--5--5--3--3--2--2--|
||--0--0--0--0--0--0--0--0--|--------------------------|--------------------------|--------------------------|



|--------------------------|--------------------------|--------------------------|--------------------------||
|--------------------------|--------------------------|--------------------------|--------------------------||
|--------------------------|--7--7--7--7--7--7--7--7--|--5--5--5--5--5--5--5--5--|--5--5--5--5--5--5--7--7--||
|--2--2--2--2--2--2--2--2--|--5--5--5--5--5--5--5--5--|--5--5--5--5--5--5--5--5--|--5--5--5--5--5--5--7--7--||
|--2--2--2--2--2--2--2--2--|--5--5--5--5--5--5--5--5--|--3--3--3--3--3--3--3--3--|--3--3--3--3--3--3--5--5--||
|--0--0--0--0--0--0--0--0--|--------------------------|--------------------------|--------------------------||


 2x
||--------------------------|--------------------------|--------------------------|--------------------------|
||--------------------------|--------------------------|--------------------------|--------------------------|
||--------------------------|--------------------------|--x--5--5--5--5--5--5--5--|--5--2--2--2--2--2--2--2--|
||--2-----------------------|--2-----------------------|--x--5--5--5--5--5--5--5--|--5--2--2--2--2--2--2--2--|
||--2-----------------------|--2-----------------------|--x--3--3--3--3--3--3--3--|--3--0--0--0--0--0--0--0--|
||--0----0--0--0-0-0--0--0--|--0----0--0--0-0-0--0--0--|--------------------------|--------------------------|



|--------------------------|--------------------------|--------------------------|--------------------------||
|--------------------------|--------------------------|--------------------------|--------------------------||
|--------------------------|--------------------------|--x--7--7--7--7--7--7--7--|--7--2--2--2--2--2--2--2--||
|--2-----------------------|--2-----------------------|--x--7--7--7--7--7--7--7--|--7--2--2--2--2--2--2--2--||
|--2-----------------------|--2-----------------------|--x--5--5--5--5--5--5--5--|--5--0--0--0--0--0--0--0--||
|--0----0--0--0-0-0--0--0--|--0----0--0--0-0-0--0--0--|--------------------------|--------------------------||

  2x
||--------------------------|------------------------------|--------------------------|---------------------------||
||--------------------------|------------------------------|--------------------------|---------------------------||
||--------------------------|------------------------------|--------------------------|---------------------------||
||--9-----9-----9-----9-----|--10-------------------12-----|--9-----9-----9-----9-----|--7-----7-----7-----10-----||
||-----7-----7-----7-----7--|------9h--10--9---------------|-----7-----7-----7-----7--|-----5-----5-----5------8--||
||--------------------------|------------------------------|--------------------------|---------------------------||


  4x
||-----------------------------|---------------------------|--------------------------|--------------------------|
||-----------------------------|---------------------------|--------------------------|--------------------------|
||--2--2--2--2--2---2---2---2--|---2--2--2--2--2--2--2--2--|--5--5--5--5--5--5--5--5--|--5--5--5--5--5--5--5--5--|
||--2--2--2--2--2---2---2---2--|---2--2--2--2--2--2--2--2--|--5--5--5--5--5--5--5--5--|--5--5--5--5--5--5--5--5--|
||--0--0--0--0--0---0---0---0--|---0--0--0--0--0--0--0--0--|--3--3--3--3--3--3--3--3--|--3--3--3--3--3--3--3--3--|
||-----------------------------|---------------------------|--------------------------|--------------------------|
||
||-----------------------------|---------------------------|--------------------------|--------------------------|
||-----------------------------|---------------------------|--------------------------|--------------------------|
||-----------------------------|---------------------------|-----------------7--7--7--|--7--5--5--5--5--4--4--4--|
||--7--7--7--7--7--10--10--10--|--10--9--9--9--9--7--7--7--|--7--7--7--7--7-----------|--------------------------|
||-----------------------------|---------------------------|--------------------------|--------------------------|
||-----------------------------|---------------------------|--------------------------|--------------------------|



|--------------------------|--------------------------|--------------------------|--------------------------||
|--------------------------|--------------------------|--------------------------|--------------------------||
|--7--7--7--7--7--7--7--7--|--7--7--7--7--7--7--7--7--|--5--5--5--5--5--5--5--5--|--5--5--------------------||
|--7--7--7--7--7--7--7--7--|--7--7--7--7--7--7--7--7--|--5--5--5--5--5--5--5--5--|--5--5--5--5--5--5--5--5--||
|--5--5--5--5--5--5--5--5--|--5--5--5--5--5--5--5--5--|--3--3--3--3--3--3--3--3--|--3--3--5--5--5--5--5--5--||
|--------------------------|--------------------------|--------------------------|--------3--3--3--3--3--3--||
|
|--------------------------|--------------------------|--------------------------|--------------------------||
|--------------------------|--------------------------|--------------------------|--------------------------||
|--4--------------9--9--9--|--9--7--7--7--7--5--5--5--|--5--4--4--4--4--5--5--5--|--5--4--4--4--4-----------||
|-----7--7--7--7-----------|--------------------------|--------------------------|-----------------7--7--7--||
|--------------------------|--------------------------|--------------------------|--------------------------||
|--------------------------|--------------------------|--------------------------|--------------------------||
Related for Road To Devastation tab