Song name
# A B C D E F G H I J K L M N O P Q R S T U V W X Y Z

Kataklysm - As The Glorious Weep tab

As the Glorious Weep
By: Kataklysm
Album: Epic; the Poetry of War

Drop B Tuning

(0:00 - 0:20)
|------------------------------------------------------------------|
|------------------------------------------------------------------|
|-8--8--8--8--8--8--7--7--7--0--0--0-------------------------------|
|10-10-10-10-10-10-10-10-10-10-10-10-------------------------------|
|----------------------------------------1-1-1-1-1-1--3-3-3-3-3-3--|
|----------------------------------------1-1-1-1-1-1--3-3-3-3-3-3--|


(0:21 - 0:40)lead guitar starts playing here
|-------------------------------------------------------------------------|
|-------------------------------------------------------------------------|
|-------------------------------------------------------------------------|
|13-13-13-13-13-13-12-12-12-10-10-10-13-13-13-13-13-13-12-12-12-15-15-15--|
|-------------------------------------------------------------------------|
|-------------------------------------------------------------------------|


(0:40 - 1:01)
|----------------------------------------------------------|
|----------------------------------------------------------|
|----------------------------------------------------------|
|0-0-0--0-0-0--0-0-0--0-0-0---0--0--0---0-0-0--0---0--0-0--|
|5-5-5--8-7-5--7-7-7--8-7-5--10-10-10--10-8-7-12--12-10-8--|
|0-0-0--0-0-0--0-0-0--0-0-0---0--0--0---0-0-0--0---0--0-0--|


(1:01 - 1:22)
|-------------------------------------------------------|
|-------------------------------------------------------|
|-------------------------------------------------------|
|1-------------3-------------1--------------------------|
|1-0--0-0-0-0--3-0--0-0-0-0--1-0--0-0-0-0--4-3-0-3-1-0--|
|1-0--0-0-0-0--3-0--0-0-0-0--1-0--0-0-0-0--4-3-0-3-1-0--|


(1:23 - 1:42)
|----------------------------------------------------------|
|----------------------------------------------------------|
|----------------------------------------------------------|
|0-0-0--0-0-0--0-0-0--0-0-0---0--0--0---0-0-0--0---0--0-0--|
|5-5-5--8-7-5--7-7-7--8-7-5--10-10-10--10-8-7-12--12-10-8--|
|0-0-0--0-0-0--0-0-0--0-0-0---0--0--0---0-0-0--0---0--0-0--|


(1:43 - 1:45)Bridge
|--------------------------|
|--------------------------|
|--------------------------|
|--------------------------|
|1-1-1-1-1-1--3-3-3-3-1-1--|
|1-1-1-1-1-1--3-3-3-3-1-1--|


(1:46 - 2:05)
|------------------------------------------------------------------|
|------------------------------------------------------------------|
|-8--8--8--8--8--8--7--7--7--0--0--0-------------------------------|
|10-10-10-10-10-10-10-10-10-10-10-10-------------------------------|
|----------------------------------------1-1-1-1-1-1--3-3-3-3-3-3--|
|----------------------------------------1-1-1-1-1-1--3-3-3-3-3-3--|

|-------------------------------------------------------------------------|
|-------------------------------------------------------------------------|
|-------------------------------------------------------------------------|
|13-13-13-13-13-13-12-12-12-10-10-10-13-13-13-13-13-13-12-12-12-15-15-15--|
|-------------------------------------------------------------------------|
|-------------------------------------------------------------------------|


(2:06 - 2:26) Pull offs in this riff are very fast
|------------------------------------------------------|
|------------------------------------------------------|
|--------------------------------------------------22--|
|--p------------p------------p-----------5555223333----|
|5-0----------3-0----------1-0-------------------------|
|---0000000000---0000000000---0000000000---------------|


(2:27 - 2:46)
|-------------------------------------------------------|
|-------------------------------------------------------|
|-------------------------------------------------------|
|1-------------3-------------1--------------------------|
|1-0--0-0-0-0--3-0--0-0-0-0--1-0--0-0-0-0--4-3-0-3-1-0--|
|1-0--0-0-0-0--3-0--0-0-0-0--1-0--0-0-0-0--4-3-0-3-1-0--|


(2:47 - 3:07) Pull offs in this riff are very fast
|------------------------------------------------------|
|------------------------------------------------------|
|--------------------------------------------------22--|
|--p------------p------------p-----------5555223333----|
|5-0----------3-0----------1-0-------------------------|
|---0000000000---0000000000---0000000000---------------|


(3:07 - 3:26)
|----------------------------------------------------------|
|----------------------------------------------------------|
|----------------------------------------------------------|
|0-0-0--0-0-0--0-0-0--0-0-0---0--0--0---0-0-0--0---0--0-0--|
|5-5-5--8-7-5--7-7-7--8-7-5--10-10-10--10-8-7-12--12-10-8--|
|0-0-0--0-0-0--0-0-0--0-0-0---0--0--0---0-0-0--0---0--0-0--|


(3:27 - 3:29) Bridge Again
|--------------------------|
|--------------------------|
|--------------------------|
|--------------------------|
|1-1-1-1-1-1--3-3-3-3-1-1--|
|1-1-1-1-1-1--3-3-3-3-1-1--|


(3:29 - 4:01)
|------------------------------------------------------------------|
|------------------------------------------------------------------|
|-8--8--8--8--8--8--7--7--7--0--0--0-------------------------------|
|10-10-10-10-10-10-10-10-10-10-10-10-------------------------------|
|----------------------------------------1-1-1-1-1-1--3-3-3-3-3-3--|
|----------------------------------------1-1-1-1-1-1--3-3-3-3-3-3--|

|-------------------------------------------------------------------------|
|-------------------------------------------------------------------------|
|-------------------------------------------------------------------------|
|13-13-13-13-13-13-12-12-12-10-10-10-13-13-13-13-13-13-12-12-12-15-15-15--|
|-------------------------------------------------------------------------|
|-------------------------------------------------------------------------|


(4:01 - 4:11) End of Song
|----------------|
|----------------|
|----------------|
|13-12-10-8--10--|
|----------------|
|----------------|
Tap to rate this tab
# A B C D E F G H I J K L M N O P Q R S T U V W X Y Z