Guitaretab - guitar tabs
Song name
# A B C D E F G H I J K L M N O P Q R S T U V W X Y Z

Kataklysm - Feared Resistance tab

Band: Kataklysm
Album: Victims of this Fallen World
Song: Feared Resistance

fb - full bend       hb - half bend
qb - quarter bend    t - tap bend
^ - Hold bend        r - release bend
~ - vibrato bend
ph - pinched harmonic      nh  natural harmonic
ah  artificial harmonic   hh  harp harmonic
.  palm mute            x  staccato mute
, - light palm mute      ; - heavy palm mute
/ - slide up to            \ - slide down to       
h - hammer on              p - pull off
 - sustained note         * - see comment
" - tremolo note           <> - Trill
L  left channel only      R  right channel only
= - 12 string guitar part

Tuning B E A D F# B

Intro A 
|-----------------------------------------------|
|-----------------------------------------------|
|-----------------------------------------------|
|------------------3"---------------------3"-2"-| gtr 1
|-----------------------------------------------|
|-0"-1"-4"---0"-1"-----0"-1"-4"--1"-0"-1"-------|

|-----------------------------------------------|
|-----------------------------------------------|
|-----------------------------------------------|
|-----------------------------------------------| gtr 2
|-2--------------------2------------------------|
|-0--------------------0------------------------|
                       x

Intro B 
|-----------------------------------------------|
|-----------------------------------------------|
|-----------------------------------------------|
|------------------3"---------------------3"-2"-| gtr 1
|-----------------------------------------------|
|-0"-1"-4"---0"-1"-----0"-1"-4"--1"-0"-1"-------|

|-----------------------------------------------|
|-----------------------------------------------|
|-----------------------------------------------|
|-----------------------------------------3"-2"-| gtr 2
|-2--------------------2------------------------|
|-0--------------------0---------1"-0"-1"-------|
                       x

Riff 1  X4
|-----------------------------------------------|
|-----------------------------------------------|
|-----------------------------------------------|
|------------------3"---------------------3"-2"-|
|-----------------------------------------------|
|-0"-1"-4"---0"-1"-----0"-1"-4"--1"-0"-1"-------|

Riff 2 X 8
|------------------------------|
|------------------------------|
|------------------------------|
|--------------------4\3-------|
|-2--2-2-3\2---6\5---2\1---4/5-|
|-0--0-0-1\0-0-4\3-0-----0-2/3-|
     . .     .     .     .

Riff 3 X 8
|-------------------------|
|-------------------------|
|-------------------------|
|-------------------------|
|-2--2-3\2----6--5--6/8\7-|
|-0--0-1\0--0-4--3--4/6\5-|
     .      .

Riff 4 X 8
|----------------------------|
|----------------------------|
|----------------------------|
|-----9"-------------5"--4"--|
|-----10"----5"--7"----------|
|-0"-------------------------|
[ Tab from: http://www.guitaretab.com/k/kataklysm/96128.html ]
Riff 4 X 4
|---------------------------------------------|
|---------------------------------------------|
|---------------------------------------------|
|-2ph-hb----------------------------------5---|
|---------2-2-2---2-2---------------------7---|
|---------0-0-0---0-0--000--000--000--000---0-|
          . . .   . .  ...  ...  ...  ...   .

Intro A x 1 
Intro B x 1 
Riff 1 x 1 

Riff 5 X 4
|---------------------------------------|
|---------------------------------------|
|---------------------------------------|
|---------------------------------------|
|---------------------------------------|
|-0"---3"-6"---3"-0"---3"-6"--h7"p6"-3"-|

Riff 6a X 2
|-----------------------------------------|
|-----------------------------------------|
|-----------------------------------------|
|---------3---------------3---4---4-------|
|-2-------1---1-2-2-------1-3-2-2-2-2-5-5-|
|-0---0-1---------0---0-0---1---0---0-3-3-|
      . .     . .     . . . . . . . . . .

Riff 6b X 2
|-----------------------------------------------------------------|
|-----------------------------------------------------------------|
|-----------------------------------------------------------------|
|-----------------3-3-3-3-3-3---------------------3-3-4-4-3-3-----|
|-2-2-2-2-2-2-4/5-1-1-1-1-1-1-3\2-2-2-2-2-2-2-4/5-1-1-2-2-1-1-3\2-|
|-0-0-0-0-0-0-2/3-------------1\0-0-0-0-0-0-0-2/3-------------1\0-|
  . . . . . . . . . . . . . . . . . . . . . . . . . . . . . . . .

Riff 7 X 4
|--------------------------------|
|--------------------------------|
|--------------------------------|
|--------------------------------|
|----7"-6"----6"--5"-------------|
|-0"-------7"---------5"-6"--5"--|

Riff 8a X 3
|----------------------------|
|----------------------------|
|----------------------------|
|----2--1----1--0------------| gtr 1
|-2--2--1----1--0----8-8-7-7-|
|-0--------0-------0-6-6-5-5-|
  .        .       . . . . .
|----------------------------|
|----------------------------|
|----------------------------|
|----------------------------| gtr 2
|-2------------------8-8-7-7-|
|-0----------------0-6-6-5-5-|
  x                . . . . .

Riff 8b 
|----------------------------------|
|----------------------------------|
|----------------------------------|
|----2--1------1-1-0-0-------------| gtr 1
|-2--2--1--2-2-1-1-0-0-2-2-8-8-7-7-|
|-0--------0-0---------0-0-6-6-5-5-|
  .        . . . . . . . . . . . .
|----------------------------------|
|----------------------------------|
|----------------------------------|
|----------------------------------| gtr 2
|-2------------8-8-7-7-2-2-8-8-7-7-|
|-0------------6-6-5-5-0-0-6-6-5-5-|
  x            . . . . . . . . . .

Intro A x 1 

Riff 9 X 4
|----------------------|
|----------------------|
|----------------------|
|-----9"---------5"-4"-|
|-----10"--5"-7"-------|
|-0"-------------------|

Riff 2 x 1/2 

End 
|--------------------|
|--------------------|
|--------------------|
|--------------------|
|-2--2-2-3\2-2-----2-|
|-0--0-0-1\0-0-----0-|
     . .     x     x
Related for Feared Resistance tab