Song name
# A B C D E F G H I J K L M N O P Q R S T U V W X Y Z

Katastro - You I Wait chords

    F      C.     G
e---8------3------3-|
B--10------5------3-|
G--10------5------4-|
D--10------5------5-|
A---8------3------5-|
E---8------3------3-|

Riff
e--------------------------------------------------------------------------------|
B--------------------------------------------------------------------------------|
G-----------10-12b12-10-------------------------------5-7b7-5--------------------|
D---10h12-----------------12----------------------5h7-----------7----------------|
A--------------------------------------------------------------------------------|
E--------------------------------------------------------------------------------|
Tap to rate this tab
# A B C D E F G H I J K L M N O P Q R S T U V W X Y Z