Song name
# A B C D E F G H I J K L M N O P Q R S T U V W X Y Z

Katastrophy Wife - Anathema tab

Tuning: Standard EADGBE
Artist: Katastrophy Wife
Track: Anathema

Intro :
e|-----------------------------------------|
b|-----------------------------------------|
g|------------3b-p0-----------3b-3b-3b-p0--| with variations
d|----2-2---------------2------------------|
a|-3-------3---------3-----3---------------|
e|-----------------------------------------|


e|------------------------|
b|------------------------|
g|-6-6-6-6-6-6---6-6-6/8b-|
d|-6-6-6-6-6-6---6-6-6/8b-|
a|-6-6-6-6-6-6---6-6-6/8b-|
e|-4-4-4-4-4-4---4-4-4/6b-|

then walk towards your amp and make random noise by shaking your guitar, bending
strings, etc.


Lyrics:

Wait, have you gone insane
this is just what it looks like
this is just what it sounds like
Tap to rate this tab
# A B C D E F G H I J K L M N O P Q R S T U V W X Y Z