Katastrophy Wife - Heart-on tab

-------------------------------------------------------------------------------
			     HEART-ON - Katastrophy Wife
-------------------------------------------------------------------------------
Tabbed by: J. T. Huntley II


This is just the main riff. 

Tuning: Standard

e|-------------------------------------|
B|-------------------------------------|
G|--------999-7-7----------------------|
D|----9-9-999-7-7-777-9-9-777-9-9------|
A|----9-9-777-5-5-777-9-9-777-9-9------|
E|----7-7---------555-7-7-555-7-7------|
Tap to rate this tab
 
# A B C D E F G H I J K L M N O P Q R S T U V W X Y Z