Song name
# A B C D E F G H I J K L M N O P Q R S T U V W X Y Z

Katastrophy Wife - Asstroglide tab

Intro/Chorus:

E-----------------------------------------------------------|
B-----------------------------------------------------------|
G---4-4-4--7-7-7-------------9----7-7-7---4-4-4-4-4-4-4-4---|
D---4-4-4--7-7-7--11-11-11--9----7-7-7---4-4-4-4-4-4-4-4----|
A---2-2-2--5-5-5--11-11-11--7----5-5-5---2-2-2-2-2-2-2-2----|
E------------------9--9--9----------------------------------|


Verse:

E----------------------------------------------------------|
B----------------------------------------------------------|
G---4----7----------9----7----4--4-4-4-4-4-4---------------|
D---4----7----11----9----7----4--4-4-4-4-4-4---------------|
A---2----5----11----7----5----2--2-2-2-2-2-2---------------|
E--------------9-------------------------------------------|
Tap to rate this tab
 
# A B C D E F G H I J K L M N O P Q R S T U V W X Y Z