Song name
# A B C D E F G H I J K L M N O P Q R S T U V W X Y Z

Katastrophy Wife - Blue Valient tab

Blue Valient - Katastrophy Wife & Carina Round

Verse
e|--1--0--3--|
b|--3--1--0--|
g|--2--0--0--|
d|--0--2--0--|
a|-----3--2--|
E|--------3--|

Chorus/Outro
e|-----------|
b|-----------|
g|-----5-----|
d|--7--5--2--|
a|--7--3--2--|
E|--5-----0--|

The quiet part
e|-----------|
b|-----------|
g|-----4--8--|
d|--6--4--8--|
a|--6--2--6--|
E|--4--------|
Tap to rate this tab
# A B C D E F G H I J K L M N O P Q R S T U V W X Y Z