Song name
# A B C D E F G H I J K L M N O P Q R S T U V W X Y Z

Katatonia - Nowhere tab

Legend:
-------
h hammer on
p pull off
~ vibrato
/ slide up
\ slide down


standard tuning.

 riff 1
|-------------------------------------------------------------------6-6-----|-15\-|
|--------------------------------------------------------------6--------7~--|-----|
|----------------8~----8~---\6~-------------------------7-6-7----7----------|-----|
|--9-8~---8h9p8-------------------9-8---8h9p8--8-6~---6---------------------|-----|
|---------------------------------------------------------------------------|-----|
|---------------------------------------------------------------------------|-----|

 riff 2 (play twice each time with second ending as written below this bar)
|------------------------------------------------------------------|
|------------------------------------------------------------------|
|-8h10-10--8-10-10--8-10-10-10-10-10-10-10-10-10-10--11-11-11------|
|------------------------------------------------------------------|
|------------------------------------------------------------------|
|------------------------------------------------------------------|
 The 11's at the end of the riff number a lot more than three, so just listen for the
 exact amount, writing them all out here would be a pain, not to mention redundant.
 For the second ending to this riff, play some of the 11's, then go back to the 10's for
 the remainder of the riff, just listen to the CD to hear what I mean.

Riff 1 4x
Riff 2 2x

 riff 3  note spacing condensed                    bridge
|----------------------------------------------|--7--------------------------|
|------------------------------11-----11-------|-----9-----------------------|
|------------------8--11-10/------10-----10----|--------10--8--7-------------|
|----8---8--6----------------------------------|------------------9--8-------|
|-6------------6-------------------------------|------------------------10---|
|----------------------------------------------|-----------------------------|
 Second time through this riff, replace the first 11 on B with an 11 on E

 riff 4                                     riff 5
|-----------------------------------------|-----------------------------------------|
|-----------------------------------------|-----------------------------------------|
|-----------------------------------------|---------8-----------8-------------------|
|-6--6--6h9--6--6--6h9-7-6--6--6h7--6--6--|-6--6--9---9-8--8--9---9-8--8---8h9--6---|
|-----------------------------------------|-----------------------------------------|
|-----------------------------------------|-----------------------------------------|

Riff 3 4x
Bridge
Riff 4 4x
Riff 5 4x
Riff 4 4x

 interlude part 1
|-----------------------------------------------|
|-----------------------------------------------|
|-----10------10-----10-------10------10--------|
|---8-------8---------------8-------8-------8---|
|-6-------6-------6-------6-------6-------6-----|
|-----------------------------------------------|

|--------------------------------------------------|
|--------------------------------------------------|
|------10------10------10-------10------10-----8---|
|----8-------8----------------8-------8------------|
|--6-------6--------6-------6-------6-------6------|
|--------------------------------------------------|

 interlude part 2              part 3
|-------------------------|------------------------|
|-------------------------|------------------------|
|-----10------10----10----|-----6-------6-----6----|
|---8-------8-------------|---6-------6------------|
|-6-------6------6--------|-4-------4-----4--------|
|-------------------------|------------------------|

 riff 6
|---------------------------------------|
|---------------------------------------|
|--8--8p7---------------------7---7h8---|
|----------8-9---9/6--6--6/9------------|
|---------------------------------------|
|---------------------------------------|

Interlude part one 3x
	  part two 4x
        part three 4x
            Riff 6 4x
            Riff 2 2x
            Riff 3 4x end with D# on G

Tap to rate this tab
# A B C D E F G H I J K L M N O P Q R S T U V W X Y Z