Song name
# A B C D E F G H I J K L M N O P Q R S T U V W X Y Z

Katatonia - Dancing December tab

Katatonia
Dance of December Souls
Dancing December

Tabbed by: tp648, 17 Feb 2009
Email: tp648@hotmail.com

  0:00-1:12
e|-------------------------------|
B|-------------------------------|
G|-------------------------------|
D|-10-9-7------------------------| x6
A|--------10-8-7-10-10--10/12-10-|
E|-------------------------------|


  1:12-2:15
e|--------------------------------------------|
B|--------------------------------------------|
G|-----5--5-------7--7-------9--9-------9--9--|
D|---5---5------7---7------9---9------9---9---| x16
A|-3----------5----------7----------7---------|
E|--------------------------------------------|
  (palm mute with modulated delay for echo)

  1:43-2:15
e|---------------------|-----------------------|
B|--------------8------|-----------------------|
G|-9----------9---7/9--|-9---------------------|
D|----7-7--10----------|----7-7--7-10-9--------| x4
A|---------------------|----------------10/12--|
E|---------------------|-----------------------|
  Dancing...
Tap to rate this tab
 
# A B C D E F G H I J K L M N O P Q R S T U V W X Y Z