Katatonia - One Year From Now tab

Band:  Katatonia
Song:  One Year From Now
Album: Viva Emptiness
Year: 2003
Tuning: C standard


Verse Riff/Main Riff:

C |---------------------0---|
G |---------1-------------1-|
Eb|-----2-----2-----2-------|
Bb|---2---2-------2---2-----| x16
F |-0-----------0-----------|
C |-------------------------|

Chorus

C |-0------3--0------1------|-0------3--0-------3------|
G |-1------3--0------1------|-1------3--0-------4------|
Eb|-2------0--0------2------|-2------0--0-------5------|
Bb|-2------0--2------3------|-2------0--2-------5------| x1
F |-0------2--2------3------|-0------2--2-------3------|
C |-0------3--0------1------|-0------3--0-------3------|

Interlude/Heavy Riff

C |---------------------|---------------------|
G |---------------------|---------------------|
Eb|---------------------|---------------------|
Bb|-2---------2---------|-5---------2---------| x8
F |-2-2-2-2-2-2-2-2-2-2-|-5-5-5-5-5-2-2-2-2-2-|
C |-0-0-0-0-0-0-0-0-0-0-|-3-3-3-3-3-0-0-0-0-0-|


Song Structure:
Verse
Chorus
Verse
Chorus 
Interlude
Verse 
Chorus



Tap to rate this tab
 
# A B C D E F G H I J K L M N O P Q R S T U V W X Y Z