Song name
# A B C D E F G H I J K L M N O P Q R S T U V W X Y Z

Katatonia - Consternation tab

Band: Katatonia
Album: The Great Cold Distance
Song: Consternation
Copyright (c) Peaceville Records, 2006

Tab Written On - April 14th, 2007

Transcribed By: Jordan J.
Email: spotlight_72@hotmail.com

Legend:
h - hammer on
b - bend 
rb - release bend

Tuning: Standard
(E A D G B E)

E|------------------------------------------------------------------------|
B|-------18----16h15---15h16---15-----------------------------------------|
G|-~17------------------------------~15---15h17-------------------------17| 
D|-----------------------------------------------18---17b18rb17b18rb17----|
A|------------------------------------------------------------------------|
D|------------------------------------------------------------------------|

E|-----------------------------------------------------|
B|-----------------------------------------------------|
G|-----------------------------------------------------| 
D|--17---------15----------13----------10--------------|
A|-------18----------15---------13---------11---~10---|
D|-----------------------------------------------------|

(Repeat this again, and thats the beautiful sounding solo for you =D)

Finished...

- Jordo.
Tap to rate this tab
# A B C D E F G H I J K L M N O P Q R S T U V W X Y Z