Song name
# A B C D E F G H I J K L M N O P Q R S T U V W X Y Z

Kate Nash - I Hate Seagulls tab

standard tuning

okay this is just a basic idea of what kate is doing, hard to figure when i only have 
live version.

I hate seagulls...

E|--------------------------|
B|----12-----10-----8-----8-|
G|--------------------------|
D|--9----7-7----5-5---5-5---|
A|--------------------------|
E|--------------------------|

okay second part of the song.

this is the basic thing and you can work around it.

but...i have a friend

E|-------------------|
B|-------------------|
G|-------------------|
D|--2222/3333-0------|
A|-------------3333--|
E|-------------------|

E|--------------------------------------------|----------------|
B|--------------------------------------------|----------------|
G|----0--0--0--0-----0--0--0--0----0--0--0--0-|-----0--0--0--0-|
D|--2--2--2--2-----3--3--3--3-----------------|----------------|
A|-------------------------------3--3--3--3---|---2--2--2--2---|
E|--------------------------------------------|----------------|
     repeat this until
     "anytime i...and on the word "can" switch to this ^

and repeat that throughout the song, you can work it out i hope, sorry i didnt explain 
that well i don't normally tab its just nobody had tabbed this.

/ = slide

any questions or mistakes e-mail me at darcey_fartcy@hotmail.com

darcey
Tap to rate this tab
 
# A B C D E F G H I J K L M N O P Q R S T U V W X Y Z