Song name
# A B C D E F G H I J K L M N O P Q R S T U V W X Y Z

Kate Nash - Mariella tab

INTRO TO SONG AND FIRST VERSE
C
|-------------------------|
|-------------------------|
|-------------0-----------|
|----------2--------------|
|-3----3----------3-----3-|
|-----3----------------3--|

*next*

C             Am           G          F
|---------------------------------------------------|
|---------------------------------------------------|
|---------------------------------------------------|
|---2---2----2---2-----2---2----2---2---------------|
|-3---3----0---0------------------------------------|
|--------------------2---2----0---0-----------------|

*REPEAT THROUGHOUT SONG UNTIL... *
**the Last bit, it is a bit different, same chords, but it just hits the base-notes. The 
rhythm is the same, but if you listen to the recording it's not hard to figure it out. **
 C       Am     G     F
|----------------------------|
|----------------------------|
|----------------------------|
|----------------------------|
|-3----3-0----0--------------|
|---------------2----2-0-0---|

And she says *yeah* I'm never ever ever ever ever ever ever ever ever ever, yeah, I'm
ever ever ever ever ever ever, yeah, I'm never ever ever ever ever ever ever gunna unglue
lips from being together
She said I'm never ever ever ever ever ever ever ever ever ever, yeah, I'm never ever
ever ever ever ever, yeah, I'm never ever ever ever ever ever ever
gunna unglue my lips from being together
Tap to rate this tab
 
# A B C D E F G H I J K L M N O P Q R S T U V W X Y Z