Guitaretab - guitar tabs
Song name
# A B C D E F G H I J K L M N O P Q R S T U V W X Y Z

Kate Nash - Carolines A Victim Acoustic tab

Highlighted       Show chord diagrams
-------------------------------------------------------------------------------
			     Kate Nash - Caroline's A Victim (Acoustic)
-------------------------------------------------------------------------------
Tabbed by: useless_idiot
Email: lazystudentboy@hotmail.com

Tuning: Standard
[ Tab from: http://www.guitaretab.com/k/kate-nash/92478.html ]
This is just the same four chords throughout, enjoy

      C      D      G      F
e|------------------3------1-----------|
B|----5------7------3------1-----------|
G|----5------7------4------2-----------|
D|----5------7------5------3-----------|
A|----3------5------5------3-----------|
E|------------------3------1-----------|
Related for Carolines A Victim Acoustic tab
Advertisement will be closed in 10 seconds