Guitaretab - guitar tabs
Song name
# A B C D E F G H I J K L M N O P Q R S T U V W X Y Z

Kate Rusby - Sleepless Sailor tab

-------------------------------------------------------------------------------
			     SLEEPLESS SAILOR - Kate Rusby
-------------------------------------------------------------------------------
Tabbed by: Neil Palfreyman
Email: neilpalfreyman@hotmail.com

Tuning:DADGBd
Time signature : 3/4



  D
d|------------0-----|------------0-----|------------0-----|------------0-----|
B|------3-----------|------3-----------|------3-----------|------3-----------|
G|---2-----2-----2--|---2-----2-----2--|---2-----2-----2--|---2-----2-----2--| INTRO
D|0-----------------|0-----------------|0-----------------|0-----------------|
A|------------------|------------------|------------------|------------------|
D|------------------|------------------|------------------|------------------|
  ^     ^     ^      ^     ^     ^      ^     ^     ^      ^     ^     ^
                                                                       I



  D                  Dmaj7              G                  D 
d|------------0-----|------------0-----|------------0-----|------------0-----|
B|------3-----------|------2-----------|------0-----------|------3-----------|
G|---2-----2-----2--|---2-----2-----2--|---0-----0-----0--|---2-----2-----2--|VERSE
D|0-----------------|0-----------------|0-----------------|0-----------------|
A|------------------|------------------|------------------|------------------|
D|------------------|------------------|------------------|------------------|
  ^     ^     ^      ^     ^     ^      ^     ^     ^      ^     ^     ^
  once  was   a      sailor      a      young man   and    brave
  night       as I'm stood    on the    deck  in    the    rain
  rock  me    so     gently      now    ocean       so     deep


  G                  D                                     A7 
d|------------0-----|------------0-----|------------0-----|------------0-----|
B|------0-----------|------3-----------|------3-----------|------2-----------|
G|---0-----0-----0--|---2-----2-----2--|---2-----2-----2--|---0-----0-----0--|
D|0-----------------|0-----------------|0-----------------|2-----------------|
A|------------------|------------------|------------------|------------------|
D|------------------|------------------|------------------|------------------|
  ^     ^     ^      ^     ^     ^      ^     ^     ^      ^     ^     ^
  Da       da dum    day                Da       da dum    dee            My
  Da       da dum    day                Da       da dum    dee            I
  Da       da dum    day                Da       da dum    dee            I



  D                  Dmaj7              G                  D 
d|------------0-----|------------0-----|------------0-----|------------0-----|
B|------3-----------|------2-----------|------0-----------|------3-----------|
G|---2-----2-----2--|---2-----2-----2--|---0-----0-----0--|---2-----2-----2--|
D|0-----------------|0-----------------|0-----------------|0-----------------|
A|------------------|------------------|------------------|------------------|
D|------------------|------------------|------------------|------------------|
  ^     ^     ^      ^     ^     ^      ^     ^     ^      ^     ^     ^
  nights were once   sleepless      my  peace    I  would  crave
  heard    a  sweet  voice and   she's  sing- ing   my     name
  wish  I     was    back  cause I      think    I  can't  sleep 

  G                  D                  A7
d|------------0-----|------------0-----|------------0-----|------------0-----|
B|------0-----------|------3-----------|------2-----------|------2-----------|
G|---0-----0-----0--|---2-----2-----2--|---0-----0-----0--|---0-----0-----0--|
D|0-----------------|0-----------------|2-----------------|------------------|
A|------------------|------------------|------------------|0-----------------|
D|------------------|------------------|------------------|------------------|
  ^     ^     ^      ^     ^     ^      ^     ^     ^      ^     ^     ^
  carry       me     home     to the    sea
  carry       me     back     to the    sea
  carry       me     home     to the    sea


[ Tab from: http://www.guitaretab.com/k/kate-rusby/107688.html ]
  D                                     G                  D
d|------------0-----|------------0-----|------------0-----|------------0-----|
B|------3-----------|------3-----------|------0-----------|------3-----------|
G|---2-----2-----2--|---2-----2-----2--|---0-----0-----0--|---2-----2-----2--|CHORUS -
D|0-----------------|0-----------------|0-----------------|0-----------------|        |
A|------------------|------------------|------------------|------------------|        | 
D|------------------|------------------|------------------|------------------|        |
  ^     ^     ^      ^     ^     ^      ^     ^     ^      ^     ^     ^              |
  Da       da dum    day                Da       da dum    dee                        |
                                                                                      |
                                                                                      |
  G                  D                                     A7                         |
d|------------0-----|------------0-----|------------0-----|------------0-----|        |
B|------0-----------|------3-----------|------3-----------|------2-----------|        |
G|---0-----0-----0--|---2-----2-----2--|---2-----2-----2--|---0-----0-----0--|        |
D|0-----------------|0-----------------|0-----------------|2-----------------|        |
A|------------------|------------------|------------------|------------------|        |
D|------------------|------------------|------------------|------------------|        |
  ^     ^     ^      ^     ^     ^      ^     ^     ^      ^     ^     ^              |
  Drift       away   sailor      boys   on      the deep   sea                        |
                                                                                      |
                                                                                      | 
  D                                     G                  D                          |
d|------------0-----|------------0-----|------------0-----|------------0-----|        |
B|------3-----------|------3-----------|------0-----------|------3-----------|        |
G|---2-----2-----2--|---2-----2-----2--|---0-----0-----0--|---2-----2-----2--|        |
D|0-----------------|0-----------------|0-----------------|0-----------------|        |
A|------------------|------------------|------------------|------------------|        | 
D|------------------|------------------|------------------|------------------|        |
  ^     ^     ^      ^     ^     ^      ^     ^     ^      ^     ^     ^              |
  Worry       no     more  for   you're safe  now   with   me                         |
                                                                                      |
                                                                                      |
  D                                                                                   |
d|------------0-----|------------0-----|------------0-----|                           |
B|------3-----------|------3-----------|------2-----------|                           |
G|---2-----2-----2--|---2-----2-----2--|---0-----0-----0--|                           |
D|0-----------------|0-----------------|2-----------------| --------------------------
A|------------------|------------------|------------------|        
D|------------------|------------------|------------------|        
  ^     ^     ^      ^     ^     ^      ^     ^     ^                    
  Rest  in    my     arms        and my sweet       melo - 


  D
d|------------0-----|------------0-----|------------0-----|------------0-----|
B|------3-----------|------3-----------|------3-----------|------3-----------|
G|---2-----2-----2--|---2-----2-----2--|---2-----2-----2--|---2-----2-----2--| Back to Verse
D|0-----------------|0-----------------|0-----------------|0-----------------|
A|------------------|------------------|------------------|------------------|
D|------------------|------------------|------------------|------------------|
  ^     ^     ^      ^     ^     ^      ^     ^     ^      ^     ^     ^
- dy                                                                  1)  One
                                                                      2)  Oh










| /  slide up
| \  slide down
| h  hammer-on
| p  pull-off
| ~  vibrato
| +  harmonic
| x  Mute note
===============================================================================


Related for Sleepless Sailor tab
Advertisement will be closed in 10 seconds