Song name
# A B C D E F G H I J K L M N O P Q R S T U V W X Y Z

Katharine Mcphee - Terrified tab

Katharine McPhee - Terrified



FOR THE WHOLE SONG.
                        
e|-------6----------|-------6----------|-------6----------|
B|---4-----4---4----|---4-----4---4----|---4-----4---4----|
G|------------------|------------------|------------------|
D|------------------|------------------|------------------|
A|-6---6-----6------|-5---5-----5------|-3---3-----3------|
E|------------------|------------------|------------------|


                        
e|-------6----------|
B|---4-----4---4----|
G|------------------|   
D|------------------|
A|------------------|
E|-4---4-----4------|

yan lang ata yun .. kinapa ko lng ee. piaki rate nlng po :)

ito ung link sa youtube. pakinggan nio :)
http://www.youtube.com/watch?v=un60RISzE-A&ob=av2e

thnx :)
Tap to rate this tab
 
# A B C D E F G H I J K L M N O P Q R S T U V W X Y Z